PEARL JAM GUITAR&BASS TABS

 

    If you come here by following a link     Click Here To Go Main Page
     The accord table is here. Click and see it.. 
     
    Table of Contents:                                                          
                                                                          
        From 'Ten':          From 'Vs':            From'Vitalogy':       From'No Code':                                                                                      Once                   Go                     Last Exit           
        Evenflow              Animal                 Spin The Black        Sometimes
        Alive                 Daughter                 circle              Hail Hail
        Black                 Glorified G            Not For You           Who You Are
        Jeremy                Dissident              Tremor Christ         In My Tree
        Oceans                WMA                    Nothingman            Smile
        Porch                 Blood                  Whipping              Off He Goes
        Garden                Rearviewmirror         Corduroy              Habit
        Release               Elderly Woman          Bugs                  Red Mosquito 
        Once                  Leash                  Satan's Bed           Lukin
                              Indifference           Better Man            Present Tense 
                                                     Aye Davanita          Mankind
                                                     Immortality           I'm Open
                                                     Stupid Mop            Around The Bend
                                                                          
        From 'Yield':      Non-album originals:   Non-album covers:    Bass:              
                                                                        
        Brain of J.           Alone                  Act of Love            Black              
        Faithfull             Angel                  Beast of Burden        Dirty Frank      
        No Way                Breath                 Crazy Mary             Dissident           
        Given To Fly          Dirty Frank            Dock of the Bay        Go                  
        Wishlist              Footsteps              F&*%in Up              Jeremy              
        Pilate                Habit                  Hunger Strike          Not For You        
        Do The Evolution      Hard to Imagine        I Won't Back Down      Porch               
        MFC                   I Got Shit             I've Got a Feeling     Rats                
        Low Light             I Got Shit (as         I've Got You           Rearviewmirror      
        In Hiding               incorrectly titled   The Kids Are           Spin The Black      
        Push Me, Pull Me        on Aussie Dynamos)     Alright                Circle            
        All Those Yesterdays  Let Me Sleep           Let My Love Open       State of Love       
                              Long Road                the Door               and Trust         
        From 'Binaural':     Lukin                  Little Wing            WMA                 
        Nearly all the songs  Outta My Mind          Masters of War         Why Go              
        are zipped...         State of Love          Patriot                Smile                    
                                and Trust            Redemption Song        Corduroy                    
                              Wash                   Rockin' in the         Alive                    
                              Yellow Ledbetter         Free World           Hail Hail                    
                                                     Sonic Reducer          Many others(20+) zipped..                    
                                                     Walking The Cow                            
                                                                           
                                                 
Click the links for going directly to the song
                                                                       
 
PjPjPjPjPjPjPjPjPjPjPjPjPjPjPjPjPjPjPjPjPj
Pj                                      Pj
Pj      From the 1991 album 'Ten'         Pj
Pj                                      Pj 
PjPjPjPjPjPjPjPjPjPjPjPjPjPjPjPjPjPjPjPjPj
PjPjPjPjPjPjPjPjPjPjPjPjPjPjPjPjPjPjPjPjPjPjPjPjPjPjPjPjPjPjPjPjPjPjPjPjPjPjPj
 Once
Intro (played with heavy distortion)
---3-----3--3---3---1-----1--1---1---1--1--1--1--1--1--0-----0--0---1---1-----
---3-----3--3---3---3-----3--3---3---3--3--3--3--3--3--3-----3--3---3---3-----
---2-----2--2---2---2-----2--2---2---2--2--2--2--2--2--2-----2--2---2---2-----
---0-----0--0---0---0-----0--0---0---0--0--0--0--0--0--0-----0--0---0---0-----
------------------------------------------------------------------------------
------------------------------------------------------------------------------
---3---3---1--1--1--1--1--1-----1----1----1----1------------------------------
---3---3---3--3--3--3--3--3-----3----3----3----3------------------------------
---0---0---2--2--2--2--2--2-----2----2----2----2------------------------------
---0---0---0--0--0--0--0--0-----0----0----0----0------------------------------
-----------------------------------------------------5-\-3-/-5----------------
------------------------------------------------------------------------------
------------------------------------------------------------------------------
---0-h-2----2---2-h-3-p-2-h-3-/-7-\-3-h-2---3-p-2-------0---------------------
----------------------------------------------------2-------------------------
------------------------------------------------------------------------------
------------------------------------------------------------------------------
   (repeat the last line of tab above three times)
------------------------------------------------------------------------------
------------------------------------------------------------------------------
---2---2------2------2---2------2---2---5---5---2---2-------------------------
------------------------------------------------------------------------------
------------------------------------------------------------------------------
------------------------------------------------------------------------------
Verse
------------------------------------------------------------------------------
---0-h-2-p-0-h-3----2-h-3-p-2-------------------------------------------------
------------------------------------------------------------------------------
------------------------------------------------------------------------------
------------------------------------------------------------------------------
------------------------------------------------------------------------------
   (repeat the following throught the rest of the verse)
------------------------------------------------------------------------------
------------------------------------------------------------------------------
---0-h-2-p-0-h-3----2-h-3-p-2---x--x--x--2---9-\--x--x------------------------
------------------------------------------------------------------------------
------------------------------------------------------------------------------
------------------------------------------------------------------------------
Pre-Chorus'
   A5
------------------------------------------------------------------------------
------------------------------------------------------------------------------
---2----------------------------2-h-3-p-2-h-3-p-2-h-3--x--x-------------------
------------------------------------------------------------------------------
---0--------------------------------------------------------------------------
------------------------------------------------------------------------------
(A5 is sustained in the background by guitar 2.  This fill is repeated 
 throughout the pre-chorus. "Back street lover on the side of the ....")
------------------------------------------------------------------------------
------------------------------------------------------------------------------
--3-------------------3---3---0-----------------------------------------------
--3-------------------3---3---0-----------------------------------------------
--1-------------------1---1---------------------------------------------------
------------------------------------------------------------------------------
Chorus
---3----3---3---3-------1------1----1----1---1----1------0-----0--------------
---3----3---3---3-------3------3----3----3---3----3------3-----3--------------
---0----0---0---0-------0------0----3----3---3----3------3-----3--------------
---0--------------------------------------------------------------------------
------------------------------------------------------------------------------
------------------------------------------------------------------------------
---3----3---3----3------1----1----1----1--1----1-------0-----0----------------
---3----3---3----3------3----3----3----3--3----3-------3-----3----------------
---0----0---0----0------0----0----3----3--3----3-------3-----3----------------
------------------------------------------------------------------------------
------------------------------------------------------------------------------
------------------------------------------------------------------------------
(repeat the above through the chorus)
solo
Outro
---3------3--3----------------------------0----0--0-----0----0--0--0--0--0--0-
---3------3--3----------------------------6----6--6--/--8----8--8--8--8--8--8-
---0------0--0-----6------5-------0-------7----7--7--/--9----9--9--9--9--9--9-
---0------0--0--------------------0-------------------------------------------
------------------------------------------------------------------------------
------------------------------------------------------------------------------
(repeat twice)
------------------------------------------------------------------------------
---3-----3--3--8-/-10------8-------------3------3--3--8/10--------------------
---0-----0--0---------------------0------0------0--0----------------0---------
---0-----0--0---------------------0------0------0--0----------------0---------
------------------------------------------------------------------------------
------------------------------------------------------------------------------
  (pause while Eddie sings yeah,yeah,yeah,yeah)
-------------------------------------------0---0---0--------0------3----------
-------------------------------------------6---6---5--------5------3----------
-------------------------------------------7---7---5--------5------0----------
-------------------------------------------------------------------0----------
-------------------------------------------------------------------2----------
-------------------------------------------------------------------3----------
PjPjPjPjPjPjPjPjPjPjPjPjPjPjPjPjPjPjPjPjPjPjPjPjPjPjPjPjPjPjPjPjPjPjPjPjPjPjPj
  Evenflow
riff 1
------------------------------------------------------------------------------
------------------------------------------------------------------------------
----------7-7-7-7-7-7------7-7-7-7-7-7-7------7-7-7-7-7-7-7-------------------
----------7-5-5-5-5-5------7-7-7-7-7-7-7------7-7-7-7-7-7-7-------------------
--------5-5-5-5-5-5-5------5-5-5-5-5-5-5------5-5-5-5-5-5-5-------------------
----5-8----------------5-8----------------5-8---------------------------------
riff 2
------------------------------------------------------------------------------
------------------------------------------------------------------------------
----------------7-------------------------------------------------------------
----------------7-------------------------------------------------------------
----5-3-0-3---5-5-------------------------------------------------------------
------------3-----------------------------------------------------------------
riff 1 gets repeated through the verse 
until right before the chorus where you play riff 2.
Chorus:
rhythm:
------------------------------------------------------------------------------
------------------------------------------------------------------------------
-7----3--------------------------7-----5--------------------------------------
-7----3-(let ring)---------------7-----5--------------------------------------
-5----1--------------------------5-----3--------------------------------------
------------------------------------------------------------------------------
even flow, thoughts arrive like  butterflies
(and so on, repeated for each line in the chorus)
lead
------------------------------------------------------------------------------
------------------------------------------------------------------------------
--12-11---------------------------12-11---------------------------------------
--------12-8-(whammy)---------------------12-10-(whammy)----------------------
------------------------------------------------------------------------------
------------------------------------------------------------------------------
   even flow  thoughts arrive like buttterflies
(again repeated until the end part of the chorus)
either way you have to play this riif in between phrases of the chorus
------------------------------------------------------------------------------
------------------------------------------------------------------------------
------------------------------------------------------------------------------
------------------------------------------------------------------------------
--3-3-3-3-3-3-3-3-3-3-3-3/5-5-------------------------------------------------
------------------------------------------------------------------------------
and this riff at the end.
------------------------------------------------------------------------------
------------------------------------------------------------------------------
--7----5-------5----7-------7----5--------------------------------------------
--7----5-------5----7-------7----5--------------------------------------------
--5----3-------7----5-------5----3-----3-3-3-3-3/5-5-5-5-5-5-5\3-0------------
------------------------------------------------------------------------------
life  again   life again   life  again   (when appropriate, repeat a few
(or whatever the lyrics are)               times)
then the imfamous interlude where everything quiets down
------------------------------------------------------------------------------
---------------5--------------------------------------------------------------
-------5-----5---7p5----------------------------------------------------------
--/5-7---5-7------------------------------------------------------------------
------------------------------------------------------------------------------
------------------------------------------------------------------------------
 repeated when necessary
 p=pulloff
 / slide up
\ slide down

PjPjPjPjPjPjPjPjPjPjPjPjPjPjPjPjPjPjPjPjPjPjPjPjPjPjPjPjPjPjPjPjPjPjPjPjPjPjPj
 Alive
Main Riff:
----||-----------------------|----------------------------|-------------------
----||-----------------------|----------------------------|-------------------
----||--0-0-2----------------|--2-0-2---------------------|-------------------
-7\-||--0-0-2-------7-9~--7--|--2-0-2-------7-9~-7-9^-7-5-|-------------------
----||--0-0-0--5/7-----------|--0-0-0--5/7----------------|-------------------
----||-----------------------|----------------------------|-------------------
This little rhythm gets played right before the chorus and beginning
verse.
--------------------|---------------------------------------------------------
--------------------|---------------------------------------------------------
-10-10-10-----------|---------------------------------------------------------
-10-10-10--10---10--|---------------------------------------------------------
--8--8--8--10---10--|---------------------------------------------------------
------------8----8--|---------------------------------------------------------
Chorus:         E G D A
------------------------------|-----------------------------------------------
------------------------------|-----------------------------------------------
------------7-7---------------|-----------------------------------------------
--2-2--5-5--7-7--7--7-7-7-7-7-|-----------------------------------------------
--2-2--5-5--5-5--7--7-7-7-7-7-|-----------------------------------------------
--0-0--3-3-------5--5-5-5-5-5-|-----------------------------------------------
Solo:
Here's the solo as appeared in a guitar mag in may 92.
        hope it helps......
---/\----------------------------------------------|--------------------------
-15--(15)12----/\----------------------------------|---/---/----/\------------
------------14---(14)12----12----12-12-14^12----12-|-14--14--14---(14)12------
------------------------14----14-------------14----|--------------------------
---------------------------------------------------|--------------------------
---------------------------------------------------|--------------------------
      v^v^v^ w/wah-wah
------------------|--------12------/-12---------------------------------------
-------------/-12-|---/-12----12-15-----15^12--12--/\-------------------------
-14-12-----14-----|-14-----------------------14--14--(14)^12-14-14-12-14-12---
------------------|-----------------------------------------------------------
------------------|-----------------------------------------------------------
------------------|-----------------------------------------------------------
                              v^v^v^             /\
-----------------------------------------|-----17-(17)-15----------|----------
-------------------------------------0-0-|---/-----------17--------|----------
-------------------------------------0-0-|-14----------------14^16-|----------
---14-12---------------------/-----------|-------------------------|----------
---------14-13-12-10-12-10-12------------|-------------------------|----------
-----------------------------------------|-------------------------|----------
                 v^v^     v^v^v^        v^v^v^
-----------15----------------------|---------------------|--------------------
-15-17---/---17-----------------0--|---/---------/\------|--------------------
-------14------14----14-12------0--|--2---------2-(2)-0--|--------------------
-----------------------------------|---------------------|--------------------
-----------------------------------|---------------------|--------------------
-----------------------------------|---------------------|--------------------
                     /\                v^v^v^ 
------------0-3-0-3-5-(5)-12-------|---------------------------------|--------
--/-0-3-0-3------------------15-12-|--/--------------3-3---5-3---3---|--------
-2---------------------------------|-2-------2-0-2^4-----4-----4-----|--------
-----------------------------------|---------------------------------|--------
-----------------------------------|---------------------------------|--------
-----------------------------------|---------------------------------|--------
    v^v^v^         /\
------------5-7-5-5-(5)^3-5-3----/-|-----------------------------------|------
---5------5-------------------5-5--|---/-12----------------------------|------
-----------------------------------|-14-----14-12-------12-12-14-12----|------
-----------------------------------|--------------14-14-------------14-|------
-----------------------------------|-----------------------------------|------
-----------------------------------|-----------------------------------|------
                             _________                                /
----------------------------/---------\----|---/-12-12-12---12-15-12-15-|-----
---------------------------/--12--12---\---|-15-----------15------------|-----
----12-12-14-12-14-12-14-14---------14(14)-|----------------------------|-----
-14----------------------------------------|----------------------------|-----
-------------------------------------------|----------------------------|-----
-------------------------------------------|----------------------------|-----
-12-12----/-15-15---/-15-15-|-14--/-14-14---/-14-14-12---/-12-12---/----------
--------18--------18--------|---17--------17-----------15--------15-----------
----------------------------|-------------------------------------------------
----------------------------|-------------------------------------------------
----------------------------|-------------------------------------------------
----------------------------|-------------------------------------------------
-12-12-12-|---------/-12-12---/-12-12-12-----/-15-15--/-|-12-15^12--12-15-----
----------|-15^12-15--------15-------------18-------18--|---------15----------
----------|---------------------------------------------|---------------------
----------|---------------------------------------------|---------------------
----------|---------------------------------------------|---------------------
----------|---------------------------------------------|---------------------
           /    ^v^v^        /
-12-15-12-15----15---------|-15--15-12-15-12-12---/-12------------------|-----
---------------------------|--------------------15-----15^12---/-12---/-|-----
---------------------X-X-X-|---------------------------------14-----14--|-----
---------------------------|--------------------------------------------|-----
---------------------------|--------------------------------------------|-----
---------------------------|--------------------------------------------|-----
     /^\                                                /
----/---\-----------------------------------------|----/-12-------------------
---/-----\-----------------------12--12-12-12-12--|---/-----15^12-------------
-14------(14)12---12-14-12-14-15-12--12-12-12-12--|-14------------------------
----------------14--------------------------------|---------------------------
--------------------------------------------------|---------------------------
--------------------------------------------------|---------------------------
      /            /            /            /            /            /
-----/-12---------/-12---------/-12---------/-12---------/-12---------/-------
----/----15^12---/----15^12---/----15^12---/----15^12---/----15^12---/--------
--14-----------14-----------14-----------14-----------14-----------14---------
------------------------------------------------------------------------------
------------------------------------------------------------------------------
------------------------------------------------------------------------------
     /             /            /                      ^v^v          ^v^v
----/-|-12--------/-12---------/-12---------------|---------------------------
---/--|---15^12--/----15^12---/----15^12-----0----|-14-12---------14-12-------
-14---|--------14-----------14---------------0-14-|-14-12---------14-12-------
------|-------------------------------------------|-------14-12---------14-12-
------|-------------------------------------------|------------14----------14-
------|-------------------------------------------|---------------------------
      ^v^v            /              /           /          /        /
---------------------/-----12-12----/--12-12----/--15-|----/--15----/---------
----------12---12---/---12-12-12---/---12-12---/------|-15/---15-15/----------
----14----12---12-14-------------14----------14-------|-14-------14-----------
------------14----------------------------------------|-----------------------
------------------------------------------------------|-----------------------
------------------------------------------------------|-----------------------
        /        /        /----------\
-15----/--15----/--15----/--15----|---\---------------------------------------
-15-15/---15-15/---15-15/------15-|-15-\--------------------------------------
----14-------14-------14-------14-|-14(14)12----12-14-14-14---14-14-14--------
----------------------------------|----------14-------------------------------
----------------------------------|-------------------------------------------
----------------------------------|-------------------------------------------
                                                                 / 
----0---0-|-0---0-0-3-0-0-0-5-0-0-0-3-0-0-0--|-0---0-0-3-0-0-0-15--12-12------
--3^5-5-5-|-3^5-5-5-5-5-5-5-5-5-5-5-5-5-5-5--|-3^5-5-5-5-5-5-5----------------
----------|----------------------------------|--------------------------------
----------|----------------------------------|--------------------------------
----------|----------------------------------|--------------------------------
----------|----------------------------------|--------------------------------
    /      /         /          /         /         /
---/-12---/-12-12-|-15-12-12---/-12-12---/-12-12---/-12-------------|---------
-15-----15--------|----------15--------15--------15-----17^15-17-17-|---------
------------------|-------------------------------------------------|---------
------------------|-------------------------------------------------|---------
------------------|-------------------------------------------------|---------
------------------|-------------------------------------------------|---------
   /             /                          /           /       
-17--17--15-17-15---------------------|-17-17-15-17-15-----------------|------
--------------------17-15----15-17^15-|-----------------17-15----15----|------
--------------------------16----------|-----------------------16----16-|------
--------------------------------------|--------------------------------|------
--------------------------------------|--------------------------------|------
--------------------------------------|--------------------------------|------
                 /            /    /   /\              /
----------------/----12------/----/---/--\------|-----/--12-------------------
---------------/--12----12-15---15--15----15^12-|----/-----15^12--------------
-14-12----12-14---------------------------------|--14-------------------------
--------14--------------------------------------|-----------------------------
------------------------------------------------|-----------------------------
------------------------------------------------|-----------------------------
----/-12-15^12-----/-12---------/-12---------/-12----------|------------------
---/--------------/----15^12---/----15^12---/----15^12-----|------------------
-14-------------14-----------14-----------14----------14---|------------------
-----------------------------------------------------------|------------------
-----------------------------------------------------------|------------------
-----------------------------------------------------------|------------------
     /            /                 ^v^v^v^         /  ^v^v^v    /     /
----/------------/---------------------------|-----/------------/-----/--|----
---/--12-12-12--/--12------------------------|-12-/---12-----14/---15/---|----
-14-----------14------15-14-12----12---------|-14-----14-----16----17----|----
-------------------------------14------------|---------------------------|----
---------------------------------------------|---------------------------|----
---------------------------------------------|---------------------------|----
      /          /       / ^v^v^v^v              /     /    /   
-----/----------/-------/------------X-X--|-----/-----/--15/--15-|------------
--17/--------17/-----17/------------------|--17/---19/---18---18-|------------
--19---------19------19-------------------|--19----21------------|------------
------------------------------------------|----------------------|------------
------------------------------------------|----------------------|------------
------------------------------------------|----------------------|------------
     / ^v^v^v^v    /    /   /\               v^v^v^v^v^v^
--17/-------------/----/---/--\-----------|-----------------------------------
--20------------20---20--20---(20)-17-20--|-17-----------17-------------------
------------------------------------------|-----------------------------------
------------------------------------------|-----------------------------------
------------------------------------------|-----------------------------------
------------------------------------------|-----------------------------------

PjPjPjPjPjPjPjPjPjPjPjPjPjPjPjPjPjPjPjPjPjPjPjPjPjPjPjPjPjPjPjPjPjPjPjPjPjPjPj
 Black
Verse:
    E                                   E
----7------7------:--9-------9------:---7--12-----7--7---7--------------------
----9------9--10--:--10------10--9--:---9---------7--7---9--------------------
----7------7------:--9-------9------:---7---------7--7---7--------------------
----9------9------:--9-------9------:---9---------7--7---9--------------------
----7------7------:--X-------X------:---7---------X--X---7--------------------
---(0)----(0)-----:--9-------9------:--(0)--------7--7--(0)-------------------
   A                    E                                E
---5---9----5---5--7-:--7--12--7-----:--9-----9------:---7--------------------
---5--------5---5--7-:--9------9--10-:--10----10--9--:---9--------------------
---6--------6---6--7-:--7------7-----:--9-----9------:---7--------------------
---7--------7---7--7-:--9------9-----:--9-----9------:---9--------------------
---7--------7---7--X-:--7------7-----:--X-----X------:---7--------------------
---5--------5---5--7-:-(0)----(0)----:--9-----9------:--(0)-------------------
Pre-Chorus:
   C      C       Emin
-------:------:-------:---2---:----------------------------------------------- 
---1---:--1---:-------:-------:-----------------------------------------------
-------:------:-------:-------:-----------------------------------------------
---2---:--2---:---2---:---2---:-----------------------------------------------
 
Chorus:
   Emin      D         C
--------:----2----:-----------------------------------------------------------
--------:----3----:----1------------------------------------------------------
--------:----2----:-----------------------------------------------------------
----2---:---------:----2------------------------------------------------------
----2---:----X----:----3------------------------------------------------------
--------:----X----:----3------------------------------------------------------
                
PjPjPjPjPjPjPjPjPjPjPjPjPjPjPjPjPjPjPjPjPjPjPjPjPjPjPjPjPjPjPjPjPjPjPjPjPjPjPj
 Jeremy
Intro:
                         H*       H*
----------------------I----------------------I--------------------------I-----
----------------------I----------------------I--------------------------I-----
----------------------I-----------12---------I--------------------------I-----
---------------7----5-I--12-------12---------I-------------7----5-------I-----
--0---5H7--0-----0----I--12------------------I--0--5H7--0----0----------I-----
----------------------I----------------------I--------------------------I-----
   H*     H*
----------------------I-------------------------------------------------------
----------------------I-------------------------------------------------------
----------------------I-------------------------------------------------------
--12------------------I-------------------------------------------------------
--12------12----------I-------------------------------------------------------
----------12----------I-------------------------------------------------------
Main Riff:
              At home, drawing pictures       of mountaintops...
---------------------I----------------------------I---------------------------
---------------------I----------------------------I---------------------------
---------------------I----------------------------I---------------------------
--------------7---5--I--------------7----------5--I---------------------------
---0--5H7--0----0----I---0--5H7--0-----0---5H7----I---------------------------
---------------------I----------------------------I---------------------------
                           Daddy didn't give attention
                   A       G/A            D/A
----------------I----------------------I------------------------------I-------
----------------I--10-------8----------I------------------------------I-------
----------------I--9--------7----------I---7--------------------------I-------
----------------I--7--------5----------I---4--------------------------I-------
----0--5H7--0---I--0--------0----------I---0------------0---5H7----0--I-------
----------------I----------------------I------------------------------I-------
               To the fact that mommy didn't care--->
 D/A      A                                         A       G/A
-------------------I-----------------------------I---------------I------------
----------2--------I-----------------------------I--10-------8---I------------
-7--------2--------I-----------------------------I--8--------7---I------------
-4--------2--------I-----------------------------I--7--------5---I------------
-0--------0--------I------------------0---5H7--0-I--0--------0---I------------
-------------------I-----------------------------I---------------I------------
King Jeremy the          wicked              ruled his world
  D/A           D/A      A
----------------------I-------------------I------------------------I----------
----------------------I----------2--------I------------------------I----------
---7------------------I--7-------2--------I------------------------I----------
---4------------------I--4-------2--------I------------------------I----------
---0-------0--5H7---0-I--0-------0--------I-------------0--5H7--0--I----------
----------------------I-------------------I------------------------I----------
Chorus:
 F               Dm   E   F    A
 Jeremy's spoken   cla-ass  today
Rhythm fill at end of line is:
----12--------------------I----------------12-----------I---------------------
---------12----------12---I---12h14p12----------12------I---------------------
----------------14--------I------------14-----------14--I---------------------
--------------------------I-----------------------------I---------------------
--------------------------I-----------------------------I---------------------
--------------------------I-----------------------------I---------------------
The chords during the end of the song repeat  F--G--A. (Sometimes Am)
The end riff is played on a twelve-string bass, as many people pointed out. 
Here it's arranged for a six-string guitar.
--------------------------I---------------------------I-----------------------
---------8-----------7----I---------3-----------5-----I-----------------------
-------9----------7-----7-I-------4----------5-----5--I-----------------------
--------------------------I---------------------------I-----------------------
---0----------0-----------I---0----------0------------I-----------------------
--------------------------I---------------------------I-----------------------
--------------------------I---------------------------I-----------------------
---------0-----------1----I--------0------------1-----I-----------------------
-------0----------2-----2-I------0-----------2-----2--I-----------------------
--------------------------I---------------------------I-----------------------
---0-----------0----------I---0----------0------------I-----------------------
--------------------------I---------------------------I-----------------------
Repeat the first three the second time through and end with:
                        H*      H*
--------------------------------------I---------------------------------------
-------------1------------------------I---------------------------------------
--------2------------------------12---I---------------------------------------
-------------------------12------12---I---------------------------------------
---0-------------0-------12-----------I---------------------------------------
--------------------------------------I---------------------------------------
 
PjPjPjPjPjPjPjPjPjPjPjPjPjPjPjPjPjPjPjPjPjPjPjPjPjPjPjPjPjPjPjPjPjPjPjPjPjPjPj
 Oceans
Verse:
 D        C#sus4  C#         D            C#sus4
-2------------------------------------------9---------9-----------------------
-3------------7---6----------3--------------9---------9-----------------------
-2------------6---6----------2--------------11--------10----------------------
-0------------6---6----------4--------------11--11----11----------------------
--------------4---4-----------------------------------------------------------
------------------------------------------------------------------------------
 Hold on...  thread     The currents ...  Glide me towards 
 D       C#sus4  C#        D     C#sus4      C#    C
------------9----9------------------9--------9--------------------------------
-7----------9----9---------7--------9--------9-----5--------------------------
-7----------11---10--------7--------11-------10----5--------------------------
-7----------11---11--------7--------11-------11----5--------------------------
-5-------------------------5-----------------------3--------------------------
------------------------------------------------------------------------------
 you ...   left       And we're ... to dream of the next
Chorus
Cb5   C5  Cb5     C         Cb5     C5  Cb5   C
-8----8----8------8--8--8----8---8--8----8----8-----8-------------------------
-7----8----7------5--5--5----7---7--8----7----5-----5-------------------------
-5----5----5------5--5--5----5---5--5----5----5-----5-------------------------
------------------------------------------------------------------------------
------------------------------------------------------------------------------
------------------------------------------------------------------------------
                               Uh -uh
Cb5      C5   Cb5                C5 Cb5   C
-8---8---8-----8----8--8--8---8---8--8----8---8-------------------------------
-7---7---8-----7----7--7--7---7---8--7----5---5-------------------------------
-5---5---5-----5----5--5--5---5---5--5----5---5-------------------------------
------------------------------------------------------------------------------
------------------------------------------------------------------------------
------------------------------------------------------------------------------
   Uh -oh                    the next ...
Bridge
 D
------------------------------------------------------------------------------
-3-----3---3----3-----3---3--------3---3---3--3---3---3-----------------------
-2-----2---2----2-----2---2--------2---2---2--2---2---2-----------------------
-4-----4---4----4-----4---4--------4---4---4--4---4---4-----------------------
-5-----5---5------------------------------------------------------------------
------------------------------------------------------------------------------
 more...                  ooh...
  Cb5                    D
--8--8--8--8--8--8--8---------------------------------------------------------
--7--7--7--7--7--7--7----3----------------------------------------------------
--5--5--5--5--5--5--5----2----------------------------------------------------
-------------------------4----------------------------------------------------
------------------------------------------------------------------------------
------------------------------------------------------------------------------
                         ooh...

PjPjPjPjPjPjPjPjPjPjPjPjPjPjPjPjPjPjPjPjPjPjPjPjPjPjPjPjPjPjPjPjPjPjPjPjPjPjPj
 Porch
Verse:
------------------------------------------------------------------------------
----------------x--5---5------------------------------------------------------
--2----2--------x--5---5-------0---0------------------------------------------
--2----2-----------5---5-------0---0------------------------------------------
--0----0----------------------------------------------------------------------
------------------------------------------------------------------------------
       what the f- is    this world
------------------------------------------------------------------------------
--2-----------5---5---5----5---0----------------------------------------------
--2---2-------5---5---5----5---0----------------------------------------------
--2---2-------5---5---5----5--------------------------------------------------
------0-----------------------------------------------------------------------
------------------------------------------------------------------------------
     running to      you  didn't
Chorus/Bridge:
------------------------------------------------------------------------------
------------------------------------------------------------------------------
------------------------------------------------------------------------------
--5-------5------5--5--5--5---7-------7--7--7--7---8------8-------------------
--5-------5------5--5--5--5---7-------7--7--7--7---8------8-------------------
--3-------3------3--3--3--3---5-------5--5--5--5---6------6-------------------

------------------------------------------------------------------------------
------------------------------------------------------------------------------
------------------------------------------------------------------------------
---7----7--7--7--7---5----5--5--5--5----7----7--7--7--7-----------------------
---7----7--7--7--7---5----5--5--5--5----7----7--7--7--7-----------------------
---5----5--5--5--5---3----3--3--3--3----5----5--5--5--5-----------------------

------------------------------------------------------------------------------
------------------------------------------------------------------------------
------------------------------------------------------------------------------
---8----8--8--8--8-----10-10-10-10-10-10-10-10--------------------------------
---8----8--8--8--8-----10-10-10-10-10-10-10-10--------------------------------
---6----6--6--6--6-----8--8--8--8--8--8--8--8---------------------------------
PjPjPjPjPjPjPjPjPjPjPjPjPjPjPjPjPjPjPjPjPjPjPjPjPjPjPjPjPjPjPjPjPjPjPjPjPjPjPj
 Garden
Intro/Verse:
--2-0---0---------------------------------------------------------------------
----------0-----1---0---1-0---0-----------------------------------------------
--2---2-----2-0---2---2---0-2---2---------------------------------------------
------------------------------------------------------------------------------
------------------------------------------------------------------------------
------------------------------------------------------------------------------
--2-0---0-----------0---------------------------------------------------------
----------0-----1-------1-0---0-----------------------------------------------
--2---2-----2-0---2---2---0-2---2---------------------------------------------
------------------------------------------------------------------------------
------------------------------------------------------------------------------
------------------------------------------------------------------------------
--2-0---0---------------------------------------------------------------------
----------0-----1---0---1-----0-----------------------------------------------
--2---2-----2-0---2---2---0-2---2---------------------------------------------
------------------------------------------------------------------------------
------------------------------------------------------------------------------
------------------------------------------------------------------------------
--2-0---0---------------------------------------------------------------------
----------0-----1-------------------------------------------------------------
--2---2-----2-0---------------------------------------------------------------
------------------------------------------------------------------------------
------------------------------------------------------------------------------
------------------------------------------------------------------------------
Chorus is Am G
Bridge is A5 G5 F#5 D5
Solo is in Am pentatonic

PjPjPjPjPjPjPjPjPjPjPjPjPjPjPjPjPjPjPjPjPjPjPjPjPjPjPjPjPjPjPjPjPjPjPjPjPjPjPj
 Release
Main Riff:
-0-2-0-------0-------3-0------------------------------------------------------
-------3-------3--------------------------------------------------------------
---------2-------2------------------------------------------------------------
-0---------0-------0----------------------------------------------------------
------------------------------------------------------------------------------
------------------------------------------------------------------------------
Chords during verses are: D Bm C
Chords during Chorus are:  Dsus4 D Dsus2 with Wah
                           D Bm C without (guitar 2)
PjPjPjPjPjPjPjPjPjPjPjPjPjPjPjPjPjPjPjPjPjPjPjPjPjPjPjPjPjPjPjPjPjPjPjPjPjPjPj
PjPjPjPjPjPjPjPjPjPjPjPjPjPjPjPjPjPjPjPjPj
Pj                                      Pj
Pj      From the 1993 album 'Vs.'         Pj
Pj                                      Pj 
PjPjPjPjPjPjPjPjPjPjPjPjPjPjPjPjPjPjPjPjPj
PjPjPjPjPjPjPjPjPjPjPjPjPjPjPjPjPjPjPjPjPjPjPjPjPjPjPjPjPjPjPjPjPjPjPjPjPjPjPj
 Go
Here's some of the Tab for "Go"  I got this from "A lesson with Mike
McCready" In Guitar World, Jan. 1994.
It uses a dropped D tuning (low E down to D)
The intro part is "holding down power chords and tapping on the fret board
12 frets higher with my index finger and pinkie, a la 'Spanish Fly'".
Then the next part is Octaves, D and C#
-----------------------------------------------------------
-----------------------------------------------------------
---7----7----7----6----7----7----7----6--------------------
-----------------------------------------------------------
---5----5----5----4----5----5----5----4--------------------
-----------------------------------------------------------
The Main lick is:
-----------------------------------------------------------
-----------------------------------------------------------
-----------------------------------------------------------
------------------------------po---------------------------
-----------------------------2--0---ho---------------------
---0--0--0--0--2--2--3--3----------2--3--------------------

PjPjPjPjPjPjPjPjPjPjPjPjPjPjPjPjPjPjPjPjPjPjPjPjPjPjPjPjPjPjPjPjPjPjPjPjPjPjPj
 Animal
-----------------------------------------|------------------------------------
-----------------------------------------|------------------------------------
------------------------------------PO---|------------------------------------
-----------------------------7-----(^^)--|------------------------------------
--------------------------------6--5--0--|------------------------------------
--5----5----5--5-----5----5--------------|------------------------------------
  As far as the second part of the
  verse goes, just hit a D Chord a couple of times.
Chorus:
--5--------|--8--------|--10-------|--3--------|------------------------------
--5--------|--8--------|--10-------|--3--------|------------------------------
--6--------|--9--------|--11-------|--4--------|------------------------------
--7--------|--7--------|--10-------|--5--------|------------------------------
--7--------|--7--------|--10-------|--5--------|------------------------------
--5--------|--5--------|--8--------|--3--------|------------------------------
Outro:
--x-x-17-x---x-17-x-x---17-x-x-x---x-x-x-x--|---------------------------------
--x-x-17-x---x-17-x-x---17-x-x-x---x-x-x-x--|---------------------------------
--x-x-14-x---x-14-x-x---14-x-x-x---x-x-x-x--|---------------------------------
--------------------------------------------|---------------------------------
--------------------------------------------|---------------------------------
--------------------------------------------|---------------------------------
--x-x-17-x---x-17-x-x---17--x-x---x-x-20-20--|--------------------------------
--x-x-17-x---x-17-x-x---17--x-x---x-x-20-20--|--------------------------------
--x-x-14-x---x-14-x-x---14--x-x---x-x-17-17--|--------------------------------
---------------------------------------------|--------------------------------
---------------------------------------------|--------------------------------
---------------------------------------------|--------------------------------
 
PjPjPjPjPjPjPjPjPjPjPjPjPjPjPjPjPjPjPjPjPjPjPjPjPjPjPjPjPjPjPjPjPjPjPjPjPjPjPj
 Daughter
Tuning: GGDGBD
        
Intro:
-------------------0------------------------------0--0-0-0-0-0-0--------------
----------------0-----0---------------------------0--0-0-0-0-0-0--------------
-------------0-----------0-------------0---0-0----0--0-0-0-0-0-0--------------
----------7-----------------0----------0---0-0----7-\9-7-9-9-9-9--------------
-------5----------------------0--------0---0-0----5-\7-5-7-7-7-7--------------
----0--------------------------(0)-----0---0-0----0--0-0-0-0-0-0--------------
Verse: 
---------0-0-0-0-0-0-0--0-0-0-0---0-------------------------------------------
---------0-0-0-0-0-0-0--0-0-0-0---0-------------------------------------------
-0--0-0--0-0-0-0-0-0-0--0-0-0-0---0-------------------------------------------
-0--0-0--7\9-7-9-9-9-9--7-7-7-7\9-7-------------------------------------------
-0--0-0--5\7-5-7-7-7-7--5 5-5-5\7-5-------------------------------------------
-0--0-0--0-0-0-0-0-0-0--0-0-0-0-0-0-------------------------------------------
Pre-Chorus:
 
--------------------------------0---------------------------------------------
--------------------------------0---------------------------------------------
--------------------------------0---------------------------------------------
--12x12x12--11-11-11-11---------0---------------------------------------------
--9-x9-x9---9--9--9--9----------0---------------------------------------------
--------------------------------0---------------------------------------------
Version two of pre chorus used towards end of song:
------------------------------------------------------------------------------
------------------------------------------------------------------------------
---12----11-------------------------------------------------------------------
---9--9--9--9--12-9--11-9-9--11-----------------------------------------------
---9--9--9--9--9--9--9--9-9--9------------------------------------------------
------------------------------------------------------------------------------
Outro:
------------------------------------------------------------------------------
------------------------------------------------------------------------------
------------------------------------------------------------------------------
---ho po-------ho-po-----ho-po-------ho--po-----------------------------------
--8--9--8-----8--9--8---8--9--8-----8---9---8---------------------------------
------------------------------------------------------------------------------
 
PjPjPjPjPjPjPjPjPjPjPjPjPjPjPjPjPjPjPjPjPjPjPjPjPjPjPjPjPjPjPjPjPjPjPjPjPjPjPj
 Glorified G
 
Below is the opening riff that Mike plays.  This riff is used throughout
the song without much variation.
 
---------------------------------------------------------------------------|--
------3----3--3-------3----3-3------3----3--3-------3---2------------------|--
--0h2---2--4--2---0h2---2--1-2--0h2---2--4--2---0h2---2-0------------------|--
---------------------------------------------------------------------------|--
---------------------------------------------------------------------------|--
---------------------------------------------------------------------------|--
                                                 
This is the little rhythm riff that Stone plays.  Listen to this to get the
groove that he is playing -- don't forget the muted rakes.
 
---------------------------------------------------------------------------|--
---------------------------------------------------------------------------|--
---------------------------------------------------------------------------|--
--7---6---5-6--------------------------------------------------------------|--
--5---5---7-5---muted--rakes-----------------------------------------------|--
---------------------------------------------------------------------------|--
                                                                               
Stone and Mike basically play the these next two lines about the same.
Although I have added more of what Mike plays into the tab.
 
------------------------------|----5-------5-------------------------------|--
--3-3-3--3--3----3-3-3--3--3--|--6-6-6-6-6-6-6-6-6-6-6-6-6-6-6---5-5-5-----|--
--2-2-2h-4--2----2-2-2h-4--2--|--5-5-5-5-5-5-5-5-5-5-5-5-5-5-5---5-5-5-----|--
--0-0-0--0--0----0-0-0--0--0--|--5-5-5-5-5-5-5-5-5-5-5-5-5-5-5---5-5-5-----|--
------------------------------|--------------------------------------------|--
------------------------------|--------------------------------------------|--
  Got  a  gun,  fact I got 2     That's OK  man   'cuz I love   God
                                                                               
-------------------------------|-------5-----------5-----------------------|--
--3-3-3--3-3--------3-------3--|-6-6-6-6-6-6-6-6-5-5-5-5-5-5-5-5-----------|--
--2-2-2h-4-2--------2-------2--|-5-5-5-5-5-5-5-5-5-5-5-5-5-5-5-5-----------|--
--0-0-0--0-0---2h-4----2h-4----|-5-5-5-5-5-5-5-5-5-5-5-5-5-5-5-5-----------|--
-------------------------------|-------------------------------------------|--
-------------------------------|-------------------------------------------|--
  Glorified version of a pellet gun   Feels so  manly  when  armed
 
                                                                               
This is a really weird switch in the song ("Always, keep it looooaaaded!!").
The chord pattern is C, C#, D#. Sometimes it is hard to remember to go 
to this pattern.  If you listen to the live Atlanta show, Mike even 
forgets to hit the right chords!
 
----------------------9-9----|----------------------9-9--------9-9---------|--
------------------8-8-9-9-8--|------------------8-8-9-9-8--8-8-9-9-8-------|--
--5--5-5--6--6-6--8-8-8-8-8--|--5--5-5--6--6-6--8-8-8-8-8--8-8-8-8-8-------|--
--5--5-5--6--6-6--8-8-8-8-8--|--5--5-5--6--6-6--8-8-8-8-8--8-8-8-8-8-------|--
--3--3-3--4--4-4--6-6-6-6-6--|--3--3-3--4--4-4--6-6-6-6-6--6-6-6-6-6-------|--
-----------------------------|---------------------------------------------|--
                                                                               
                                                                               
This is a very simple variation to the first riff that Mike plays.  He
basically plays the A note a few more times that normal and throws a simple
5th fret bend.  For those of you that can't follow the notation, 5b p3 means
to bend the 5th fret to 7th (whole step), drop the bend back down and 
pull of to the 3rd fret.
 
----------------------------------|----------------------------------------|--
-----3---3--3--------------3---3--|------3---2--3-------------3---3-5b-p3--|--
-0h2---2-4--2-2-2-2-2-0h-2---2-1--|--0h2---2-4--2-2-2-2-2-0h2---2-0--------|--
----------------------------------|----------------------------------------|--
----------------------------------|----------------------------------------|--
----------------------------------|----------------------------------------|--
                                                                               
 
Here is the solo.  I am not even sure if it is worth transcribing solos.  I
would like to hear some feedback from people.  Let me know if this even helps
anyone to learn the solo.  I know that sometimes tab is really hard to 
follow.
 
Anyway, tackle this a little bit at a time.  It really is a pretty easy solo
to learn.  Just think of each part as a small riff.
--------------------------------|------------------------------------------|--
---------------7--10p7--10b--10-|-10b--10--7-------------------------------|--
------7hp9--9b------------------|-------------9b--7---7--------------------|--
--7h9---------------------------|-------------------9----------------------|--
--------------------------------|------------------------------------------|--
--------------------------------|------------------------------------------|--
   This measure might not be correct.         Play this twice.
------------------------------------|------------10---------10-------------|--
------------------------------------|-10--10h-12-----10h-12----10----------|--
------------------------------------|-----------------------------11-------|--
-9p-7-7-----------------------------|--------------------------------------|--
---------9p-7-7--9-------7--7b-7----|--------------------------------------|--
-------------------10--7---------10-|--------------------------------------|--
                                                                               
    Play this a couple times.                     Play this twice.
----12p-10----14p-10----12p-10----14p-10----|-12b-12b--10------------------|--
-10--------10--------10--------10--------10-|-------------12-10------------|--
--------------------------------------------|------------------------------|--
--------------------------------------------|------------------------------|--
--------------------------------------------|------------------------------|--
--------------------------------------------|------------------------------|--
                                                                               
   Get used to the bend/hold/release.
-10b-10--------10------10-------------|------------------------------------|--
--------12--10b-hold-10---10-release--|-7--10------10-10-10-10--------10-10|--
--------------------------------------|-7--9b-hold-9--9--9--9-release-9--7-|--
--------------------------------------|-----------------------------------9|--
--------------------------------------|------------------------------------|--
--------------------------------------|------------------------------------|--
                                                                               
                                                                               
-10b-10--------------------------------------------------------------------|--
--------12-10--------10----10------------10--------------------------------|--
--------------11--9b-hold-9---9-release--7---------------------------------|--
---------------------------------------------------------------------------|--
---------------------------------------------------------------------------|--
---------------------------------------------------------------------------|--
 
PjPjPjPjPjPjPjPjPjPjPjPjPjPjPjPjPjPjPjPjPjPjPjPjPjPjPjPjPjPjPjPjPjPjPjPjPjPjPj
 Dissident
The key to playing most of the rhythm parts is the open G string.
Add it liberally.  Standard tuning.
Intro:
  G               F#5 Fadd9                    G
-----------------------------|-----------------------|------------------------
-----------------------------|-----------------------|------------------------
--14b16--14b16r14--12--14~ --|--14--14b16-r14--12~ --|------------------------
-----------------------------|-----------------------|------------------------
-----------------------------|-----------------------|------------------------
-----------------------------|-----------------------|------------------------
Play twice:
  G                       F#5 Fadd9                  G
------------------------------------|----------------------|------------------
---------15--------15---------------|----------------------|------------------
--14b16===--14b16===---14b16-r14~ --|--14--14b16-r14-12~ --|------------------
------------------------------------|----------------------|------------------
------------------------------------|----------------------|------------------
------------------------------------|----------------------|------------------
Verse Riff:
-------------------------------3---3------3-----3-----------------|-----------
--1-----1------------------3---3-3-3---6--5--3--5---3--3----3-0X--|-----------
--0-------0----------------3---3-3-3---3--3--3--3---3--5----5-0X--|-----------
--0h2-------0h2--2h3--3/5--5---5-5-5---5--5--5--5------5----5-----|-----------
--3------------------------3---3-3-3---3--3--3--3------3----3-----|-----------
------------------------------------------------------------------|-----------
-------------------------------3---3------------------------|-----------------
--1------------------------3---3-3-3---6--3--5---3---3--5\--|-----------------
--0-----0------------------3---3-3-3---3--3--3---5---5--5\--|-----------------
--0h2---2---0h2--2h3--3/5--5---5-5-5---5--5--5---5---5--5\--|-----------------
--3------------------------3---3-3-3---3--3--3---3----------|-----------------
------------------------------------------------------------|-----------------
Fill at end of Verse Riff:
 
-----------------|------------------------------------------------------------
---6--3--5-------|------------------------------------------------------------
------------5~ --|------------------------------------------------------------
-----------------|------------------------------------------------------------
-----------------|------------------------------------------------------------
-----------------|------------------------------------------------------------
Chorus 1: 
  G               F#5 Fadd9                    G
                           "When she couldn't hold"
-----------------------------|-----------------------|------------------------
-----------------------------|-----------------------|------------------------
--14b16--14b16r14--12--14~ --|--14--14b16-r14--12~ --|------------------------
-----------------------------|-----------------------|------------------------
-----------------------------|-----------------------|------------------------
-----------------------------|-----------------------|------------------------
  G               F#5 Fadd9                    G
  "She folded"            "A dissident is here"
-----------------------------|-----------------------|------------------------
-----------------------------|-----------------------|------------------------
--14b16--14b16r14--12--14~ --|--14--14b16-r14--12~ --|------------------------
-----------------------------|-----------------------|------------------------
-----------------------------|-----------------------|------------------------
-----------------------------|-----------------------|------------------------
  G            F#5 Fadd9                       G
  "Escape is never"       "the safest path" 
-------------------------|---------------------------|------------------------
--15b17----15b17--r15~ --|--15b17---15b17-r15--------|------------------------
-------------------------|---------------------12~ --|------------------------
-------------------------|---------------------------|------------------------
-------------------------|---------------------------|------------------------
-------------------------|---------------------------|------------------------
  G               F#5 Fadd9                    G
  "A dissident"           "A dissident is here"
-----------------------------|-----------------------|------------------------
-----------------------------|-----------------------|------------------------
--14b16--14b16r14--12--14~ --|--14--14b16-r14--12~ --|------------------------
-----------------------------|-----------------------|------------------------
-----------------------------|-----------------------|------------------------
-----------------------------|-----------------------|------------------------
Chorus 2:
Repeat 4 times:
  G               F#5 Fadd9                    G
-----------------------------|-----------------------|------------------------
-----------------------------|-----------------------|------------------------
--14b16--14b16r14--12--14~ --|--14--14b16-r14--12~ --|------------------------
-----------------------------|-----------------------|------------------------
-----------------------------|-----------------------|------------------------
-----------------------------|-----------------------|------------------------
Bridge:
Repeat 4 times:
-------------------------------------------------------------|----------------
--------------------------8--------------8----------8--------|----------------
--0---0---0---0---0---0-0---0-0-0--0-0-0---0-0-0--0---0-0-0--|----------------
--5/------3/------5------------------------------------------|----------------
--5/------1/------3------------------------------------------|----------------
--3/---------------------------------------------------------|----------------
Chorus 3:
  G               F#5 Fadd9                    G
                           "When she couldn't hold"
-----------------------------|-----------------------|------------------------
-----------------------------|-----------------------|------------------------
--14b16--14b16r14--12--14~ --|--14--14b16-r14--12~ --|------------------------
-----------------------------|-----------------------|------------------------
-----------------------------|-----------------------|------------------------
-----------------------------|-----------------------|------------------------
  G               F#5 Fadd9                    G
  "She folded"            "A dissident is here"
-----------------------------|-----------------------|------------------------
-----------------------------|-----------------------|------------------------
--14b16--14b16r14--12--14~ --|--14--14b16-r14--12~ --|------------------------
-----------------------------|-----------------------|------------------------
-----------------------------|-----------------------|------------------------
-----------------------------|-----------------------|------------------------
 
  G               F#5 Fadd9                    G
  "Escape is never"          "The safest path" 
-----------------------------|-----------------------------------|------------
-----------------------------|------------------------15b17-15~ -|------------
--14b16--14b16r14--12--14~ --|--14--14b16-r14--12~ --------------|------------
-----------------------------|-----------------------------------|------------
-----------------------------|-----------------------------------|------------
-----------------------------|-----------------------------------|------------
  G             F#5 Fadd9                              G 
  "A dissident"               "A dissident is here"
----------------------------------|------------------------------------|------
--15b17--15b17-r15----------------|--15b17--15b17-r15------------------|------
--------------------12~ --h14p12--|--------------------12~ --------12--|------
----------------------------------|--------------------------12h14-----|------
----------------------------------|------------------------------------|------
----------------------------------|------------------------------------|------
  G               F#5 Fadd9                    G
  "Couldn't hold"            "No she couldn't hold"
-----------------------------|------------------------15b17-15~ -|------------
-----------------------------|-----------------------------------|------------
--14b16--14b16r14--12--14~ --|--14--14b16-r14--12~ --------------|------------
-----------------------------|-----------------------------------|------------
-----------------------------|-----------------------------------|------------
-----------------------------|-----------------------------------|------------
  G               F#5 Fadd9                                     G
  "She folded"                            "A dissident is here"
---------------------------------------------|--------------------------------
---------------------------------------------|-------------------------------- 
--14b16--14b16r14--12--14~ --------12-14p12--|--14--14b16-r14--12~ ----------- 
-----------------------------12-14-----------|-------------------------------- 
---------------------------------------------|--------------------------------
---------------------------------------------|-------------------------------- 
  G                              F#5 Fadd9                           
                    "Escape is never"                "The safest path"
-------------------|------------------------------|---------------------------
------15----15-----|-15h17~ --15----15h17~ --15~ -|-----15h17~ --15-----------
--/16----16----16--|-------------16---------------|--16-------------16--------
-------------------|------------------------------|---------------------------
-------------------|------------------------------|---------------------------
-------------------|------------------------------|---------------------------
  G                          F#5 Fadd9                           G 
                    "A dissident, a dissident is here"         
--------------------|-15~ ------15~ --15--------|---------------------|-------
--15h17~ --15~ --17-|-------17-----------15h17--|-15h17p15------------|-------
--------------------|---------------------------|----------16\14-12~ -|-------
--------------------|---------------------------|---------------------|-------
--------------------|---------------------------|---------------------|-------
--------------------|---------------------------|---------------------|-------
---8-------|------------------------------------------------------------------
---8----8--|------------------------------------------------------------------
---5----7--|------------------------------------------------------------------
---5----5--|------------------------------------------------------------------
-----------|------------------------------------------------------------------
-----------|------------------------------------------------------------------

PjPjPjPjPjPjPjPjPjPjPjPjPjPjPjPjPjPjPjPjPjPjPjPjPjPjPjPjPjPjPjPjPjPjPjPjPjPjPj
 W.M.A.
This is a very loose transcription of the main bass riff:
------------------------------------------------------------------------------
------------------------------------------------------------------------------
------------------------------------------------------------------------------
---5--5--5-5-3-5-\-8-8--8-3-3-0-0-0-------------------------------------------
                                   repeat
Verse:
The guitar is moved so far back in the mix that it is difficult to get this
exact, so just kind of improvise with the A chord like:
Guitar 1 (Stone)
------------------------------------------------------------------------------
--x-x-2-----------2------x-2---------2----------------------------------------
--x-x-2-----2-0-2---2----x-2---2-0-2-2----------------------------------------
--x-x-2-2-2-----------2--x---2-------2----------------------------------------
------------------------------------------------------------------------------
------------------------------------------------------------------------------
Guitar 2 is just a solo type in Amin, so once again, just improvise
Guitar 2 (Mike)
----------------5~~~~~~-------------------------------------------------------
---------3~~~~~~--------------3~~~~~~-----------------------------------------
--2~~~~~~---------------------------------------------------------------------
-----------------------2~~~~~~------------------------------------------------
------------------------------------------------------------------------------
------------------------------------------------------------------------------
The chorus is more of the same but Guitar 1 is more of the chords rather
than the mutes and runs.  Guitar 2's soloing is faster.
Since the guitars are so back in the mix, I can't really tell if the chords
are changing in the chorus, so you might want to throw in some chords based
on the bass notes (A, G, C, E)
PjPjPjPjPjPjPjPjPjPjPjPjPjPjPjPjPjPjPjPjPjPjPjPjPjPjPjPjPjPjPjPjPjPjPjPjPjPjPj
 Blood
Note Tuning Change:
------------------------------------------------------------------------------
------------------------------------------------------------------------------
---5--3--0h5--3--0------------------------------------------------------------
---5--3--0h5--3--0------------------------------------------------------------
---5--3--0h5--3--0------------------------------------------------------------
------------------------------------------------------------------------------
--x-x-x-x---------------------------------------------------------------------
--x-x-x-x---------------------------------------------------------------------
--x-x-x-x---3h5---------------------------------------------------------------
--x-x-x-x---------------------------------------------------------------------
------------------------------------------------------------------------------
------------------------------------------------------------------------------
ed. note:
You can play this without detuning by playing the equivalent power chords
with the root on the low E.

PjPjPjPjPjPjPjPjPjPjPjPjPjPjPjPjPjPjPjPjPjPjPjPjPjPjPjPjPjPjPjPjPjPjPjPjPjPjPj
 Rearviewmirror
Riff A:
------------------------------------------------------------------------------
------------------------------------------------------------------------------
------------------------------------------------------------------------------
------------------------------------------------------------------------------
-----0--5-----5--7------------------------------------------------------------
--5--------5--------0--0------------------------------------------------------
                  \/ 
 
Riff B:
------------------------------------------------------------------------------
------------------------------------------------------------------------------
------------------------------------------------------------------------------
------------------------------------------------------------------------------
-----0--7-----7--9------------------------------------------------------------
--7--------7--------0--0------------------------------------------------------
                  \/ 
Chorus:
 
Bm C#m G A F#m (e f) G
Bm C#m G A F#m (e f) G
A A A A 
Bridge:
 
Bm Bm A A 
Bm Bm A A 
Outro:
Bm A 
Bm G
Bm G
Bm G
Bm G 
Bm

PjPjPjPjPjPjPjPjPjPjPjPjPjPjPjPjPjPjPjPjPjPjPjPjPjPjPjPjPjPjPjPjPjPjPjPjPjPjPj
 Elderly Woman Behind the Counter in a Small Town
D Cadd9   G/B            Cadd9   G/B
I seem to recognize your face
D   Cadd9 G/B                 Cadd9   G/B
Haunting, familiar, yet can't seem to place it
D      Cadd9  G/B                  Cadd9      G/B
Cannot find a candle of thought to light your name
D   Cadd9     G/B              Cadd9   G/B
Lifetimes are catching up with me.....
C         A5             C        A5                Cadd9
All these changes taking place, I wish I'd seen the place
    A5            Em
But no one's ever taken me.......
D          Cadd9         G/B    Cadd9 G/B 
Hearts and thoughts they fade... fade away..
D          Cadd9         G/B    Cadd9 G/B
Hearts and thoughts they fade... face away.
D Cadd9   G/B            Cadd9    G/B 
I swear I recognize your breath....
D      Cadd9    G/B              Cadd9  G/B
Mem-or-ies like fingerprints are slowly raising
D   Cadd9    G/B            Cadd9  G/B
You wouldn't recall for I'm not my former..
D         Cadd9       G/B             Cadd9  G/B
It's hard when you're stuck up on the shelf...
C            A5              C           A5               Cadd9 
I changed by not changing at all.. small town predicts my fate..
   A5                      Em
Perhaps that's what no one wants to see...
D      Cadd9   G/B        Cadd9   G/B
I just want to scream,... Hello.
D  Cadd9     G/B                   Cadd9         G/B
My god, it's been so long,.. never dreamed you'd return
D       Cadd9    G/B        Cadd9  G/B
But now here you are... and here I am...
D          Cadd9         G/B    Cadd9   G/B
Hearts and thoughts they fade.. away
D          Cadd9         G/B    Cadd9 G/B  
Hearts and thoughts they fade... fade away....
(repeat 4x)

PjPjPjPjPjPjPjPjPjPjPjPjPjPjPjPjPjPjPjPjPjPjPjPjPjPjPjPjPjPjPjPjPjPjPjPjPjPjPj
Leash
Intro:                               
B5 chord
Verse:
------------------------------------------------------------------------------
------------------------------------------------------------------------------
------------------------------------------------------------------------------
------------------------------------------------------------------------------
-7h9--xx--7h9--xx--7h9--xx--7h9-----------------------------------------------
-7------xx--7-----xx--7------xx--7--------------------------------------------
Fill: (w/ wah)
------------------------------------------------------------------------------
------10--12------------------------------------------------------------------
-----------------9--11--------------------------------------------------------
------------------------------------------------------------------------------
------------------------------------------------------------------------------
------------------------------------------------------------------------------
Pre-Chorus:
B C C# D A
Chorus:
C F  Bb C

PjPjPjPjPjPjPjPjPjPjPjPjPjPjPjPjPjPjPjPjPjPjPjPjPjPjPjPjPjPjPjPjPjPjPjPjPjPjPj
 Indifference
Main Riff:
------------------------------------------------------------------------------
------------------------------------------------------------------------------
-----(5)---------(7)----------------------------------------------------------
-------(7)---------(7)--------------------------------------------------------
--7-----------5---------------------------------------------------------------
-7-----------5----------------------------------------------------------------
Fills:
------------------------------------------------------------------------------
17---15-----------------------------------------------------------------------
---------16---14--------------------------------------------------------------
------------------16-17/19--17------------------------------------------------
------------------------------------------------------------------------------
------------------------------------------------------------------------------
12---10-----------------------------------------------------------------------
---------12---10--------------------------------------------------------------
------------------11-12/14---12-----------------------------------------------
------------------------------------------------------------------------------
------------------------------------------------------------------------------
------------------------------------------------------------------------------
------------------------------------------------------------------------------
------------------------------------------------------------------------------
----(12)--------(7)---------(5)---------(5)-----------------------------------
------(12)--------(7)---------(7)---------(7)---------------------------------
--10------\\\5------------7-----------7---------------------------------------
10----------------------7-----------7-----------------------------------------

---------15-------------------------------------------------------------------
17p15-------------17p15-------------------------------------------------------
------16-------16-------16-16----16-------------------------------------------
------------------------------------------------------------------------------
------------------------------------------------------------------------------
------------------------------------------------------------------------------
------------------------------------------------------------------------------
15---17---19b20b19---15--17---------------------------------------------------
------------------------------------------------------------------------------
------------------------------------------------------------------------------
------------------------------------------------------------------------------
------------------------------------------------------------------------------

PjPjPjPjPjPjPjPjPjPjPjPjPjPjPjPjPjPjPjPjPjPjPjPjPjPjPjPjPjPjPjPjPjPjPjPjPjPjPj
PjPjPjPjPjPjPjPjPjPjPjPjPjPjPjPjPjPjPjPjPj
Pj                                      Pj
Pj    From the 1994 album 'Vitalogy       Pj
Pj                                      Pj 
PjPjPjPjPjPjPjPjPjPjPjPjPjPjPjPjPjPjPjPjPj
PjPjPjPjPjPjPjPjPjPjPjPjPjPjPjPjPjPjPjPjPjPjPjPjPjPjPjPjPjPjPjPjPjPjPjPjPjPjPj
Last Exit
Intro and Verse Riff:
------------------------------------------------------------------------------
--0----------0----------------------------------------------------------------
--0----------0----------------------------------------------------------------
--x--0-0--0--x-0--------------------------------------------------------------
--3--0-0--0--3-0--------------------------------------------------------------
-----2-2--3----2--------------------------------------------------------------
Chorus:
------- ----------------------------------------------------------------------
------- ----------------------------------------------------------------------
------- --10-9-4-4-5-7--------------------------------------------------------
------- --10-9-4-4-5-7--------------------------------------------------------
--2---- --8--7-2-2-3-5--------------------------------------------------------
----2-- ----------------------------------------------------------------------
---------- -------------------------------------------------------------------
---------- -------------------------------------------------------------------
--10-9-4-- --10-9-4-5-7-------------------------------------------------------
--10-9-4-- --10-9-4-5-7-------------------------------------------------------
--8--7-2-- --8--7-2-3-5-------------------------------------------------------
---------- -------------------------------------------------------------------
End of backward solo riff:
Tremolo Pick:
--------------- --------------------------------------------------------------
--12--10--8--7- --12--10--8--7-8---------------------------------------------- 
--10--9---7--7- --10--9---7--7-7----------------------------------------------
--------------- --------------------------------------------------------------
--------------- --------------------------------------------------------------
--------------- --------------------------------------------------------------
Palm Mutes:
-7-       ----7---7--7--------------------------------------------------------
-9-       ----10--9--10-------------------------------------------------------
-7- then  ----7---7--7--------------------------------------------------------
-7-       ----7---7--7--------------------------------------------------------
---       --------------------------------------------------------------------
---       --------------------------------------------------------------------

PjPjPjPjPjPjPjPjPjPjPjPjPjPjPjPjPjPjPjPjPjPjPjPjPjPjPjPjPjPjPjPjPjPjPjPjPjPjPj
 Spin The Black Circle
Intro I:
Guitar 1 plays this figure.
Guitar 2 doubles at *
 B A G B5                 *B A G B5
------------------------------------------------------------------------------
------------------------------------------------------------------------------
-------4-4-4-4-4-4-4-4-4-4-------4-4-4-4-4-4-4-4-4-4--------------------------
-------4-4-4-4-4-4-4-4-4-4-------4-4-4-4-4-4-4-4-4-4--------------------------
-2-0---2-2-2-2-2-2-2-2-2-2-2-0---2-2-2-2-2-2-2-2-2-2--------------------------
-----3-------------------------3----------------------------------------------
Intro II/Chorus
Guitar 1
 F  E  Eb D  C
------------------------------------------------------------------------------
------------------------------------------------------------------------------
-10\9--8--7--5----------------------------------------------------------------
-10\9--8--7--5----------------------------------------------------------------
-8-\7--6--5--3----------------------------------------------------------------
------------------------------------------------------------------------------
Guitar 2
-------------------3---3---3--------------------------------------------------
-----------------1-1-1-1-1---1------------------------------------------------
------------------------------------------------------------------------------
------------------------------------------------------------------------------
------------------------------------------------------------------------------
------------------------------------------------------------------------------
Repeat
Verse:
Guitar 1:
Played fast, especially the chords that are slid down to.
 B5              A5    B5              A5
------------------------------------------------------------------------------
------------------------------------------------------------------------------
-4-4-4-4-4-4-4-4\2-2-2-4-4-4-4-4-4-4-4\2-2-2----------------------------------
-4-4-4-4-4-4-4-4\2-2-2-4-4-4-4-4-4-4-4\2-2-2----------------------------------
-2-2-2-2-2-2-2-2\0-0-0-2-2-2-2-2-2-2-2\0-0-0----------------------------------
------------------------------------------------------------------------------
repeat
 D5              C5    D5              C5
---------------------------------------------
---------------------------------------------
-7-7-7-7-7-7-7-7\5-5-5-7-7-7-7-7-7-7-7\5-5-5-
-7-7-7-7-7-7-7-7\5-5-5-7-7-7-7-7-7-7-7\5-5-5-
-5-5-5-5-5-5-5-5\3-3-3-5-5-5-5-5-5-5-5\3-3-3-
---------------------------------------------
repeat
Solo:
Played choppy with some raking to cause mild harmonics
Guitar 2:
------------------------------------------------------------------------------
------------------------------------------------------------------------------
-5-5-5-6-5-4-4-4-5-4-3-3-3-4-3-2----------------------------------------------
-5-5-5-6-5-4-4-4-5-4-3-3-3-4-3-2----------------------------------------------
------------------------------------------------------------------------------
------------------------------------------------------------------------------
Guitar 1:
------------------------------------------------------------------------------
------------------------------------------------------------------------------
-5-5-5-5-5--------------------------------------------------------------------
-5-5-5-5-5-etc----------------------------------------------------------------
-3-3-3-3-3--------------------------------------------------------------------
------------------------------------------------------------------------------
repeat
Bridge from solo:
Guitar 1:
Played fast, especially the chords that are slid down to.
 B5              A5    B5              A5
------------------------------------------------------------------------------
------------------------------------------------------------------------------
-4-4-4-4-4-4-4-4\2-2-2-4-4-4-4-4-4-4-4\2-2-2----------------------------------
-4-4-4-4-4-4-4-4\2-2-2-4-4-4-4-4-4-4-4\2-2-2----------------------------------
-2-2-2-2-2-2-2-2\0-0-0-2-2-2-2-2-2-2-2\0-0-0----------------------------------
------------------------------------------------------------------------------
 D5              C5    D5              C5
------------------------------------------------------------------------------
------------------------------------------------------------------------------
-7-7-7-7-7-7-7-7\5-5-5-7-7-7-7-7-7-7-7\5-5-5----------------------------------
-7-7-7-7-7-7-7-7\5-5-5-7-7-7-7-7-7-7-7\5-5-5----------------------------------
-5-5-5-5-5-5-5-5\3-3-3-5-5-5-5-5-5-5-5\3-3-3----------------------------------
------------------------------------------------------------------------------
 E5              D5    E5              D5
------------------------------------------------------------------------------
------------------------------------------------------------------------------
-9-9-9-9-9-9-9-9\7-7-7-9-9-9-9-9-9-9-9\7-7-7----------------------------------
-9-9-9-9-9-9-9-9\7-7-7-9-9-9-9-9-9-9-9\7-7-7----------------------------------
-7-7-7-7-7-7-7-7\5-5-5-7-7-7-7-7-7-7-7\5-5-5----------------------------------
------------------------------------------------------------------------------
repeat E5\D5 E5\D5 once more
Outro:
Same as chorus
PjPjPjPjPjPjPjPjPjPjPjPjPjPjPjPjPjPjPjPjPjPjPjPjPjPjPjPjPjPjPjPjPjPjPjPjPjPjPj
 Not For You
Intro/Verse/Chorus:
  E    F#   G
------------------------------------------------------------------------------
------------------------------------------------------------------------------
--1----3----4-----------------------------------------------------------------
--2----4----5-----------------------------------------------------------------
--2----4----5-----------------------------------------------------------------
--0---------------------------------------------------------------------------
Interlude Solo:
  F       A          F       A          F       A          F
------------------------------------------------------------------------------
------------------------------------------------------------------------------
------------------------------------------------------------------------------
--3-5-7-5-2-0--------3-5-7-5-2----------3-5-7-5-2-0---3----3-5-7-5------------
--------------3-2--------------3-2-3----------------3-------------------------
------------------------------------------------------------------------------
Outro:
(Just the guitar part)
----7---7------7---7----------------------------------------------------------
------0---0------0---0--------------------------------------------------------
--4----------4----------------------------------------------------------------
------------------------------------------------------------------------------
------------------------------------------------------------------------------
------------------------------------------------------------------------------
PjPjPjPjPjPjPjPjPjPjPjPjPjPjPjPjPjPjPjPjPjPjPjPjPjPjPjPjPjPjPjPjPjPjPjPjPjPjPj
 Tremor Christ
Tremor Christ:
Guitar I:
A7(9)                                   G#7(#9)
------------------------------------------------------------------------------
---0----0----0----0----0----0----0----0----0----0----0----0----0----0----0----
12---12---12---12---12---12---12---12---11---11---11---11---11---11---11---11-
11---11---11---11---11---11---11---11---10---10---10---10---10---10---10---10-
12---12---12---12---12---12---12---12---11---11---11---11---11---11---11---11-
12---12---12---12---12---12---12---12---11---11---11---11---11---11---11---11-
Guitar II:
------------------------------------------------------------------------------
B String-2-0-2-0-2-0-2-0-2-0-2-0-2-0-2-0-1-0-1-0-1-0-1-0-1-0-1-0-1-0-1-0------
------------------------------------------------------------------------------
------------------------------------------------------------------------------
------------------------------------------------------------------------------
------------------------------------------------------------------------------

PjPjPjPjPjPjPjPjPjPjPjPjPjPjPjPjPjPjPjPjPjPjPjPjPjPjPjPjPjPjPjPjPjPjPjPjPjPjPj
 Nothingman
F Dm C Dm Bb
F Dm C Dm Bb
F           Dm C            Dm      Bb
Once divided...nothing left to subtract...
F                    Dm  C        Dm    Bb
Some words when spoken...can't be taken back...
F              Dm       C           Dm         Bb
Walks on his own...with thoughts he can't help thinking...
F             Dm            C         Dm       Bb
Future's above...but in the past he's slow and sinking...
Bb C5
Bb                       Bb C5          Bb              C5
Caught a bolt 'a lightnin'...cursed the day he let it go...
F
Nothingman...
C
Nothingman...
F
Isn't it something?
Bb     C
Nothingman...
F                Dm          C        Dm     Bb
She once believed...in every story he had to tell...
F                    Dm C        Dm    Bb
One day she stiffened...took the other side...
F           Dm           C           Dm           Bb
Empty stares...from each corner of a shaped prison cell...
F               Dm       C       Dm      Bb
One just escapes...one's left inside the well...
F                Dm          C           Dm      Bb
And he who forgets...will be destined to remember...oh...oh...oh...
F
Nothingman...  
C
Nothingman...
F
Isn't it something?
Bb     C
Nothingman...
Dm            Bb        C
Oh, she don't wan't him...
C             Bb     Dm             Bb       C
Oh, she won't feed him...after he's flown away...
Bb
Oh, into the sun...ah, into the sun...
Burn...burn...
F
Nothingman...  
C
Nothingman...
F
Isn't it something?
Bb     C
Nothingman...
F
Nothingman...  
C
Nothingman...
F
Coulda' been something...
Bb     C
Nothingman...
F
Oh...ohh...ohh...
PjPjPjPjPjPjPjPjPjPjPjPjPjPjPjPjPjPjPjPjPjPjPjPjPjPjPjPjPjPjPjPjPjPjPjPjPjPjPj
Whipping
Intro: 
--12--12-x-x-x----------------------------------------------------------------
---------x-x-x----------------------------------------------------------------
--12--12-x-x-x----------------------------------------------------------------
---------x-x-x----------------------------------------------------------------
---------x-x-x----------------------------------------------------------------
---------x-x-x----------------------------------------------------------------
Verse:
--0--3-----3------------------------------------------------------------------
--0--3--2--3------------------------------------------------------------------
--1--0--2--0------------------------------------------------------------------
--2--0--2--0------------------------------------------------------------------
--2--2--0--3------------------------------------------------------------------
--0--3------------------------------------------------------------------------
  E  G  A  G/C
Bridge:
--7----- -7----- -7----- -7----- -7- -----------------------------------------
----8--- ---8--- ---8--- ---8--- --- -----------------------------------------
------9- -----9- -----9- -----9- --- -----------------------------------------
-------- ------- ------- ------- --- -----------------------------------------
-------- ------- ------- ------- --- -----------------------------------------
-0------ ------- ------- ------- --- -----------------------------------------
Fill:
---- -------------------------------------------------------------------------
---- -------------------------------------------------------------------------
-12- -12-14-12----------------------------------------------------------------
-12- -12-14-12-14-------------------------------------------------------------
---- ----------14-------------------------------------------------------------
---- -------------------------------------------------------------------------
Break:
open A chord repeatedly

PjPjPjPjPjPjPjPjPjPjPjPjPjPjPjPjPjPjPjPjPjPjPjPjPjPjPjPjPjPjPjPjPjPjPjPjPjPjPj
Corduroy
Guitar I  - medium-light distortion
Guitar II - heavy distortion
Intro:
w/ high bass
Guitar I
------------------------------------------------------------------------------
-----0---0-----0---0-----0---0-----0---0-----0---0-----0---0-----0---0--------
------------------------------------------------------------------------------
-2-2---2---2-2---2---2-2---2---2-2---2---2-2---2---2-2---2---2-2---2----------
------------------------------------------------------------------------------
------------------------------------------------------------------------------
Guitar II
------------------------------------------------------------------------------
---------------0---0-----0---0-----0---0-----0---0-----0---0------------------
------------------------------------------------------------------------------
------------------------------------------------------------------------------
-------------------------------0-0---0---0-0---0---0-0---0---0-3-3-3-3--------
------------------------------------------------------------------------------
Verse:
Guitar I
 F        E  G      F        E  G
-8--8--8--7--10-----8--8--8--7--10--------------------------------------------
-10-10-10-9--12-----10-10-10-9--12--------------------------------------------
-10-10-10-9--12-----10-10-10-9--12--------------------------------------------
-10-10-10-9--12-----10-10-10-9--12--------------------------------------------
-8--8--8--7--10-----8--8--8--7--10--------------------------------------------
------------------------------------------------------------------------------
Guitar II
 F5       E5 G5     F5       E5 G5     
------------------------------------------------------------------------------
------------------------------------------------------------------------------
------------------------------------------------------------------------------
-3--3--3--2--5------3--3--3--2--5---------------------------------------------
-3--3--3--2--5------3--3--3--2--5---------------------------------------------
-1--1--1--0--3------1--1--1--0--3---------------------------------------------
repeat until chorus
Chorus:
Guitar I
 C           B        A  G
-------------2--2--2--0--3--3-----3-------------------------------------------
-1--1--1--1--4--4--4--2--3----3-----3-----------------------------------------
-0--0--0--0--4--4--4--2--0------0-----0---------------------------------------
-2--2--2--2--4--4--4--2--0----------------------------------------------------
-3--3--3--3--2--2--2--0--x----------------------------------------------------
-------------------------3----------------------------------------------------
Guitar II
 C5         B5       A5 G5
------------------------------------------------------------------------------
------------------------------------------------------------------------------
------------------------------------------------------------------------------
-10-10-10-10-9--9--9--7--5----------------------------------------------------
-10-10-10-10-9--9--9--7--5----------------------------------------------------
-8--8--8--8--7--7--7--5--3----------------------------------------------------
repeat as needed
Bridge ("Everything has changed ... Absolutely ...")
Guitar I
-2-3-3-3-3-2-3-3-3-3-3-3-2-3-3-3-3-3-3-2-3-3-3-3-3-3-2------------------------
-3-----------3-------------3-------------3------------------------------------
------------------------------------------------------------------------------
------------------------------------------------------------------------------
------------------------------------------------------------------------------
------------------------------------------------------------------------------

Guitar II
 B                         C
-2-2-2-2-2-2-2-2-2-2-2-2---3-3-3-3-3-3-3-3-3-3-3-3----------------------------
-4-4-4-4-4-4-4-4-4-4-4-4---5-5-5-5-5-5-5-5-5-5-5-5----------------------------
-4-4-4-4-4-4-4-4-4-4-4-4---5-5-5-5-5-5-5-5-5-5-5-5----------------------------
-4-4-4-4-4-4-4-4-4-4-4-4---5-5-5-5-5-5-5-5-5-5-5-5----------------------------
-2-2-2-2-2-2-2-2-2-2-2-2---3-3-3-3-3-3-3-3-3-3-3-3----------------------------
------------------------------------------------------------------------------
Outro:
Guitar I plays Bridge (above) part
Guitar II plays Intro part
PjPjPjPjPjPjPjPjPjPjPjPjPjPjPjPjPjPjPjPjPjPjPjPjPjPjPjPjPjPjPjPjPjPjPjPjPjPjPj
Bugs
if you listen real carefully you can hear this:
-----
---5-
-7--- this is played while an achordian plays:
-----        
-----          //// ////
-----          Bb   F
at 2:17 the guitar strums a Eb chords untill the songs ends
  the achordian also plays Eb

PjPjPjPjPjPjPjPjPjPjPjPjPjPjPjPjPjPjPjPjPjPjPjPjPjPjPjPjPjPjPjPjPjPjPjPjPjPjPj
Satan's Bed
Main Riff:
------------------------------------------------------------------------------
------------------------------------------------------------------------------
------------------------------------------------------------------------------
------------------------------------------------------------------------------
------0-0--4p0-0--4p0-0--4p0--------------------------------------------------
--0-0------------------------4-3~~~-------------------------------------------
this repeats throughout the intro
and verses (nice vibrato on the end G)
Chorus:
   C5    G5  D5  A5
------------------------------------------------------------------------------
------------------------------------------------------------------------------
---5---------7---------5--------7---------------------------------------------
---5------5--7---7-7---5-----5--7---7-7---------------------------------------
---3------5--5---7-7---3-----5--5---7-5---------------------------------------
----------3------5-5---------3------5-5---------------------------------------
  Already             in love ....
this repeats through out the chorus
and during the outro 
( bass plays constant A's during outro)
PjPjPjPjPjPjPjPjPjPjPjPjPjPjPjPjPjPjPjPjPjPjPjPjPjPjPjPjPjPjPjPjPjPjPjPjPjPjPj
Better Man
Intro/Main Riff:
(during verses)
------------------------------------------------------------------------------
--3-0----3-0----5-2-----5---5-2---5-------------------------------------------
--2---2--2---2--4---4-4---4-----4---------------------------------------------
------------------------------------------------------------------------------
------------------------------------------------------------------------------
------------------------------------------------------------------------------
Pre-Chorus:
  F  G  F  G
--1--3--1--3------------------------------------------------------------------
--1--3--1--3------------------------------------------------------------------
--2--x--2--x------------------------------------------------------------------
--3--5--3--5------------------------------------------------------------------
------------------------------------------------------------------------------
------------------------------------------------------------------------------
Chorus:
Dsus2 A G                       G5 
--0--0-----0--0-----0--0--0--0------------------------------------------------
--3--2-----3--2-----3--2--3--2------------------------------------------------
--2--2--0--2--2--0--2--2--2--2------------------------------------------------
--0--2--0--0--2--0--0--2--0--2--5--5--5--5------------------------------------
-----0--0-----0--0-----0-----0--5--5--5--5------------------------------------
--------3--------3--------------3--3--3--3------------------------------------
PjPjPjPjPjPjPjPjPjPjPjPjPjPjPjPjPjPjPjPjPjPjPjPjPjPjPjPjPjPjPjPjPjPjPjPjPjPjPj
Aye Davanita
Main Riff:
This is a mixture of the guitar
and bass lines.
------------------------------------------------------------------------------
------------------------------------------------------------------------------
--7----7-p-6--6---7---7---7-/-------------------------------------------------
-(0)--(0)----(0)-(0)-(0)-(0)--------------------------------------------------
--7----7------7---7---7---7-/-------------------------------------------------
--0----0------0---0---0---0---------------------------------------------------
an acoustic guitar plays E chords for the entire song.
 
PjPjPjPjPjPjPjPjPjPjPjPjPjPjPjPjPjPjPjPjPjPjPjPjPjPjPjPjPjPjPjPjPjPjPjPjPjPjPj
Immortality
Intro:
 Cadd9       E   Cadd9        E
-------0----------------0-----------------------------------------------------
---------3----------------3---------------------------------------------------
-----0-----0----------0-----0-------------------------------------------------
---2----------------2---------------------------------------------------------
-3----------------3-----------------------------------------------------------
-------------0----------------0-----------------------------------------------
Verses:
Em Dsus2
Riff:
 Em      Dsus2       Em            Dsus2
------------------------------------------------------------------------------
-----0-------3-3---3-----0h3p0---------3-3---3--------------------------------
-------0---2-----2-------------0-----2-----2----------------------------------
---------0-----------------------0-0------------------------------------------
---2-------------------2------------------------------------------------------
-0-------------------0--------------------------------------------------------
Chorus:
 
Cadd9  Em  Cadd9 Em Cadd9  A
*Solo transcribed by Kevin Collier:
------------------------------------------------------------------------------
-----------Hand------------more-----------------------------------------------
---)(------muting--)(------hand---7-7-7-7--7-7--7-7--9------------------------
--7--7p5---(can't-7--7p5---muting-5-5-5-5--5-5--5-5--7------------------------
---------7--get----------7----------------------------------------------------
------------------------------------------------------------------------------
-----------------)------------------------------------------------------------
--8-8---8-------10------------------------------------------------------------
----------9---9----12-14-12---------------------------------------------------
----------------------------14-14-14-14-14---12(slide down)-------------------
------------------------------------------------------------------------------
------------------------------------------------------------------------------
------------------------------------------------------------------------------
-----------------------------------------12-12---12-12-12---------------------
----------------------------------12--12-12-12---12-12-12---------------------
--14-14-14-14-14---12(slide down)---14----------------------------------------
------------------------------------------------------------------------------
------------------------------------------------------------------------------
------12----)---12------------------------------------------------------------
----12--12-15------15-12----12----15-12-----12--------------------------------
--14---------------------14----14---------------------------------------------
-----------------------------------------14-----14----------------------------
------------------------------------------------------------------------------
------------------------------------------------------------------------------
Solo chords:
Em Dsus2 : repeats until "more intense part" then...
Em Dsus2 Em Cadd9 : repeats a couple of times until end of solo then a 
                    long drawn out...
A..........
      "Immortality"
Outro:
Chords based on A
PjPjPjPjPjPjPjPjPjPjPjPjPjPjPjPjPjPjPjPjPjPjPjPjPjPjPjPjPjPjPjPjPjPjPjPjPjPjPj
Mophandlemama
Main Riff:
This is a mixture of the guitar
and bass lines.
-------------------
-------------------
-------------------
-------------------  feed back controlled by 
-------------------   swelling on the volume knob
--0-0-0-0-0-0-0-0-- 
PjPjPjPjPjPjPjPjPjPjPjPjPjPjPjPjPjPjPjPjPjPjPjPjPjPjPjPjPjPjPjPjPjPjPjPjPjPjPj
PjPjPjPjPjPjPjPjPjPjPjPjPjPjPjPjPjPjPjPjPj
Pj                                      Pj
Pj   From The 1996  Album  'No Code'          Pj
Pj                                      Pj 
PjPjPjPjPjPjPjPjPjPjPjPjPjPjPjPjPjPjPjPjPj
PjPjPjPjPjPjPjPjPjPjPjPjPjPjPjPjPjPjPjPjPjPjPjPjPjPjPjPjPjPjPjPjPjPjPjPjPjPjPj
Sometimes
INTRO (Guitar 1)
E -----------------------------------
B -----1-----1---1-------------------
G -----------------1-1-1-1-2-2-2-2---
D -0-0---0-0---0---------------------
A -----------------------------------
E -----------------------------------
(guitar 2)
E -12-12-13-14--17-------------------
B --------------17-------------------
G -----------------------------------
D -----------------------------------
A -----------------------------------
E -----------------------------------
2nd part
E -----------------------------------
B -----------------------------------
G -----------------------------------
D -----------------------------------
A -----3-----3---3-----3-------------
E -1-1---1-1---1---0-0---0-1-1-1-1---
3rd part (... amongst the many on the shelf...)
low E --6(x8)--7(x8)---------------------
4th part (sometimes I ...)
low E -8(x8)-5(x8)-6(x8)-7(x8)-8(x8)-6(x8)-7(x8)-8(x8)-6(x8)-7(x7)---------
repeat part 2
outro
E -13-15-12----13-15-12-|--17-13-15-12-
B ----------15----------|--------------
G ----------------------|--------------
 
 
Rhythm Figure 1(G1):
3:     5     5   5     5       5
4: 0 0   0 0   0   6 6   6 7 7   7
Rhythm Figure 2(G1):
5:     3     3   3     3       3
6: 1 1   1 1   1   0 0   0 1 1   1
Rhythm Figure 3(G2):
1:    17    17    17
2: 18    18    18
Rhythm Figure 4(G1):
4:     3     3   3
5:
6: 1 1   1 1   1
Fill 1(G2):
2: 5 5 6 7~~
Fill 2(G1):
5: 1 1 1 1 1 1 1 1 2 2 2 2 2 2 2 2
 
 
RF1                  F1
Large fingers pushing paint
                      F1
You're God and you've got big hands
                   F1
The colors blend
                              RF2
The challenges you give man
RF2
Seek my part, devote myself
                                       F2
My small self, like a book amongst the many on a shelf
RF3
Sometimes I know, sometimes I rise
Sometimes I fall, sometimes I don't
Sometimes I cringe, sometimes I live
Sometimes I walk, sometimes I kneel
Sometimes I speak of nothing at all
RF4
Sometimes I reach to myself, dear God
Outro:
1:         15              15
2: 15 18~~    17~~ 15 18~~    17~~
pjpjpjpjpjpjpjpjpjpjpjpjpjpjpjpjpjpjpjpjpjpjpjpjpjpjpjojpjpjpjpjpjpjpjpjpjpjpj
Hail, Hail
INTRO:
E-|--------------------------------------|-
B-|--------------------------------------|-
G-|--------------------------------------|-
D-|-7-7--10-10--6-6--7-7-----------5-5-3-|-(x2)
A-|-5-5--8--8---4-4--5-5-5-5--7-7--3-3-1-|-
E-|----------------------3-3--5-5--------|-
VERSE:
E-|-------------------------------------------------|-
B-|-------------------------------------------------|-
G-|-------------------------------------------------|-
D-|-------------------------------------------------|-(x2)
A-|-5-5-5-5/-8-5-5-5-5/-8-5/-8-8-8-8\-5-8-8-8-8--10-|-
E-|-3-3-3-3/-6-3-3-3-3/-6-3/-6-6-6-6\-3-6-6-6-6--8--|-
CHORUS:
E-|--------------------------------------|-
B-|--------------------------------------|-
G-|--------------------------------------|-
D-|-7-7--10-10--6-6--7-7-----------5-5-3-|-(x2)
A-|-5-5--8--8---4-4--5-5-5-5--7-7--3-3-1-|-
E-|----------------------3-3--5-5--------|-
BRIDGE:
E-|----------------|-----------3-----5-|-
B-|------8------10-|---------3-----3---|-
G-|----7------7----|-------0-----0-----|-
D-|--0------0------|-(or)--------------|-
A-|----------------|-------------------|-
E-|----------------|-------------------|-
LAST CHORUS:
E-|--------------------------------------|-
B-|--------------------------------------|-
G-|--------------------------------------|-
D-|-7-7--10-10--6-6--7-7-----------5-5-3-|-(x2)
A-|-5-5--8--8---4-4--5-5-5-5--7-7--3-3-1-|-
E-|----------------------3-3--5-5--------|-
E-|----------------------|-
B-|----------------------|-
G-|--7-7---------------3-|-
D-|--7-7---2-2---5-5---3-|-(repeat)
A-|--5-5---0-0---3-3---1-|-
E-|----------------------|-
OUTRO:
E-|----------------|-----------3-----5-|-
B-|------8------10-|---------3-----3---|-
G-|----7------7----|-------0-----0-----|-
D-|--0------0------|-(or)--------------|-
A-|----------------|-------------------|-
E-|----------------|-------------------|-
 
 
Intro (x2)
E-------------------------------------------------------
B-------------------------------------------------------
G-7-7-7-------6-6-6-7-7-7-------------------------------
D-7-7-7-7-7-7-6-6-6-7-7-7-5-5-5-7-7-7-10-10-10-8-8-8-8--
A-5-5-5-7-7-7-4-4-4-5-5-5-5-5-5-7-7-7-10-10-10-8-8-8-8--
E-------5-5-5-------------3-3-3-5-5-5--8--8--8-6-6-6-6--
Verse part A (x2)
E----------------------------------
B----------------------------------
G----------------------------------
D-5-5-5-5-5-5-5-5-5-5-5-5-8-8-7-5--
A-5-5-5-5-5-5-5-5-5-5-5-5-8-8-7-5--
E-3-3-3-3-3-3-3-3-3-3-3-3-6-6-5-3--
 (palm mute this)--------]
Verse part B (x2)
E-----------------------
B-----------------------
G-----------------------
D-5-5-5-8-8-8-8-8-8-8-8-
A-5-5-5-8-8-8-8-8-8-8-8-
E-3-3-3-6-6-6-6-6-6-6-6-
Chorus: same as the Intro
Solo/Outro: Mike plays this little ditty in the middle and at the end.
Just take these notes and improvise.
B-10-7h8-
pjpjpjpjpjpjpjpjpjpjpjpjpjpjpjpjpjpjpjpjpjpjpjpjpjpjpjpjpjpjpjpjpjpjpjpjpjpjpjp
Who You Are
Start Verse
e|----------0-----0---0---0-|
B|----------9-----9---7---5-|
G|--------------------------|
D|--------------------------|
A|--------------------------|
E|--------------------------|
Verse (x 2)
e|--0---0---0-----0---0---0-|
B|--5---7---9-----9---7---5-|
G|--------------------------|
D|--------------------------|
A|--------------------------|
E|--------------------------|
Chorus
e|--0---0---0-----0---0---0-|
B|--5---4---0-----0---4---5-|
G|--------------------------|
D|--------------------------|
A|--------------------------|
E|--------------------------|
Verse (x 3)
Chorus
Post Verse 1
Take me for a ride, before we leave...
e|----0---0---0---0---0---0---0---0---0---0---0---0---0---0---0---0---0---|
B|--5---5---2---2---2---2---2---4---4---4---4---4---5---5---5---5---5---5-|
G|------------------------------------------------------------------------|
D|------------------------------------------------------------------------|
A|------------------------------------------------------------------------|
E|------------------------------------------------------------------------|
e|--0---0---0---|
B|----5---5---5-|
G|--------------|
D|--------------|
A|--------------|
E|--------------|
Verse (x 3)
Chorus
Bridge (x 2)
e|--0-0-0-0-0-0-0-0-0-0-0-0-0-0-0-|
B|--5-4-5-4-2-4-2-0-2-4-2-4-5-4-5-|
G|--------------------------------|
D|--------------------------------|
A|--------------------------------|
E|--------------------------------|
e|--0-0-0---0---0---0---0-0-0---0---0---0---0-0-0-0-0-0-0--0-0--0-0-0--0-0-|
B|--5-4-5--/9---7---5---5-4-5--/7---5---4---5-4-5-4-5-4-5-/7-5--5-4-5-/7-5-|
G|-------------------------------------------------------------------------|
D|-------------------------------------------------------------------------|
A|-------------------------------------------------------------------------|
E|-------------------------------------------------------------------------|
Post Verse 2
Just a little time before we leave...
e|--0-0-0-0-0-0-0-0-0-0-0-0-0-0-0-0-|
B|--5-5-5-5-5-5-5-5-5-5-5-5-5-5-5-5-|
G|----------------------------------|
D|----------------------------------|
A|----------------------------------|
E|----------------------------------|
Verse (x 3)
Chorus
Solo (x 5)
e|----------------------------------------|
B|----------------------------------------|
G|----------------------------------------|
D|----------------------------------------|
A|----------------------------------------|
E|--0--2--4--5--7--9--7--5--4--5--4--2--0-|
e|----------------------------------------------------------------------|
B|----------------------------------------------------------------------|
G|----------------------------------------------------------------------|
D|----------------------------------------------------------------------|
A|----------------------------------------------------------------------|
E|--0--2--4--5--7--9--7--5--4--5--0--2--4--5--7--9--7--5--4--5--4--2--0-|
pjpjpjpjpjpjpjpjpjpjpjpjpjpjpjpjpjpjpjpjpjpjpjpjpjpjpjppjpjpjpjpjpjpjpjpjpjpjpj
In My Tree
INTRO: (Bass)
G-|------------------------------------|-
D-|------------------------------------|-(This may be an octave too
A-|-7-7-7-7--9-9-9-9-------------------|- low, I figured it out on
E-|-------------------5-5-5-5--7-7-7-7-|- a normal guitar)
 
    E
E-|-------|-------|-
B-|-0-0-0-|-0-0-0-|-
G-|-9-9-9-|-9-9-9-|-
D-|-9-9-9-|-9-9-9-|-
A-|-7-7-7-|-7-7-7-|-
E-|-0-0-0-|-0-0-0-|-
VERSE PROGRESSION:
E-|--------------------------------------------|-
B-|--------------------------------------------|-
G-|-9-9-9-9--9-9-9-9--14-14-14-14--------------|-
D-|-9-9-9-9--9-9-9-9--14-14-14-14--14-14-14-14-|-
A-|-7-7-7-7--6-6-6-6--12-12-12-12--14-14-14-14-|-
E-|-0-0-0-0--0-0-0-0--0--0--0--0---0--0--0--0--|-
CHORUS PROGRESSION:
    G    A    E
E-|-------------------|-
B-|-------------------|-
G-|-4-4--6-6--1-1-1-1-|-
D-|-5-5--7-7--2-2-2-2-|-
A-|-5-5--7-7--2-2-2-2-|-
E-|-3-3--5-5--0-0-0-0-|-
BRIDGE PROGRESSION:
    Bm F  Bm A  Bm F  Bm Dsus2
E-|-2--1--2-----2--1--2--0---|-
B-|-3--1--3-----3--1--3--3---|-
G-|-4--2--4--2--4--2--4--2---|-
D-|-4--3--4--2--4--3--4--0---|-(x 2)
A-|-2--3--2--0--2--3--2------|-
E-|----1-----------1---------|-
pjpjpjpjpjpjpjpjpjpjpjpjpjpjpjpjpjpjpjpjpjpjpjpjpjpjpjpjpjpjpjpjpjpjpjpjpjpjpjp
Smile
Intro/Verse:
Em      Am      Bm      Am
Lead:
e:-------------------------------
B:--------------------------15\--
G:--------------------14h16------
D:---------12\-------------------       (x2)
A:---12h14-----------------------
E:-------------------------------
Chorus:
G       C       D       C
Solo:
e:----------------------------------------
B:----------------------------------------
G:----------------------------------------
D:---------12----14-12-----------12----14-      (x3)
A:---12h14----14-----------12h14----14----
E:----------------------------------------
e:---------------------------------------
B:---------------------------------------
G:---------------------------------------
D:---------12----14-12-----------12-(12)-
A:---12h14----14-----------12h14---------
E:---------------------------------------
e:----------------------------------------------------
B:---17-15-----17-15--------------17-15---------------
G:----------------------------------------------------
D:-------------------------12-----------------12-(12)-
A:-------------------12h14--------------12h14---------
E:----------------------------------------------------
Outro:
e:---------------------------
B:---------------------------
G:---------------------------           (Repeat many times and fade)
D:---------------------------           With slight variations
A:-------5---7-5-----5-----7-
E:---5h7---7-----5h7---(7)---
pjpjpjpjppjpjpjppjjppjpjpjpjpjpjpjpjpjpjpjpjpjpjpjpjppjpjpjpjjjppjpjpjpjpjpjp
Off He Goes
Intro
----------------------------------------------------
---------------------0--1---------------------------
---------------------2--2---------------------------
--------3--2--2------2--2---------------------------
--0--3----------------------------------------------
----------------------------------------------------
[repeat 2x]
----------------1-----------------------------------
----------------1--1--1-----------------------------
----------------2--0--0-----------------------------
--------3--2----3--2--2-----------------------------
--0--3----------3--3--3-----------------------------
----------------------------------------------------
F C
F C           F C                    Am
  Know a man... His  face pulled and tense...
          F C                             G/F  Asus2 Am
Like he's riding on a motorbike... in the strongest  winds
       F           C                    F           C
So I approach with tact... suggest that he should relax
    F           C      G/F      F
But he's always moving much too fast
                             Am Asus2 Am                          Asus2 Am
Said he'll see me on the flipside...      of this trip he's taken for a ride
          F C       F        C     F      C
He's been takin'... too much on... off he goes
            F   C  G/F Asus2 Am         F        C
with his perfectly un--kept  clothes... there he goes
------------------------------------------------------
------------------------------------------------------
------------------------------------------------------
--2--2--2--3--2--3--2-----0--2----2--2--2--3--2--3--2-
-----------------------3------------------------------
------------------------------------------------------
------------------------------------------------------
------------------------------------------------------
-----2--0-------------------------------2--0----------
--0--------0--0--2----2--3--2--3--2--0--------0--2--0-
------------------------------------------------------
------------------------------------------------------
------------------------------------------------------
------------------------------------------------------
-----------2--0---------------------------------------
--3--2--0--------0--2--0------------------------------
------------------------------------------------------
------------------------------------------------------
F C Am
     F           C     F C
He's yet to come back... but I see his picture
F C                F    C         Am         F      C
  Doesn't look the same up on the rack... we go way back
F                    Am Asus2  Am                                Asus2   Am
I wonder 'bout his insides... it's like his thoughts are too big for his size
          F C              F       C       F      C
He's been taken... Where?  I don't know... off he goes
            F   C  G/F Asus2 Am      F        C
with his perfectly un--kept  hope... there he goes
[repeat chorus riff]
          F      C              F     C
And now I rub my eyes... for he has returned
F C           F     C              G/F         Asus2 Am
  Seems my preconceptions are what should have been  burned
    F        C
For he still smiles... and he's still smiling
F C                            F        C           G/F  Asus2 Am
  Nothing's changed but the surrounding bullshit... that has   grown
F            C    F         C
And now he's home and we're laughing
F              C      F       C               Am
Like we always did... my same old... same old friend
        F          C                F            C
Until a quarter to ten... I saw the strain creep in
F C                          F         C                G/F Asus2 Am
  He seemed distracted and I know just what is going to hap-pen   next
           F     C       F         C
Before his first step... he is off again
 
 
          Am (strum Am a few times)
E|---------0-
B|---------1-
G|---------2- x 2
D|-----3-2-2-
A|---3-----0-
E|-1---------
then
           F C C
E|---------1-0-0-
B|---------1-1-1-
G|-------2-2-0-0-
D|-----3---3-2-2-
A|---3-----3-3-3-
E|-1-------1-----
Then the rest of the song is basically just a combination
or F, C and Am chords. A classic "3 chord"-er.
 
There's also this little bit, or something similar.
E|--------------|------|--------------|-----------|
B|--------------|------|--------------|-----------|
G|--------------|------|--------------|-2-0-------|
D|-3-2-3-2-3-2--|-0--2-|-3-2-3-2-3-2--|-----0-0-2-|
A|-------------3|------|-------------3|-----------|
E|--------------|------|--------------|-----------|
ppjpjpjpjpjpjpjpjpjpjjpjpjpjpjpjpjpjpjpjpjpjpjpjpjpjpjpjpjpjpjpjpjpjpjpjpjpjp
Habit
Part One -  A5 D5 G#5
SEE IT HAPPEN TO A COUPLE OF FRIENDS
SEE IT HAPPEN AND IT REMINDS ME OF THEM
TAKE IT OUT, FOR WHAT'S AN OBVIOUS FALL
JUST TO SEE WHAT ALL THE FUSS IS ABOUT
Part Two
------------------------------------
------------------------------------
--3-7-3-3-7-3-7---------------------
------------------------------------
------------------------------------
------------------------------------
I'VE TOLD YOU WHY, DON'T YOU WAITI'VE TOLD YOU WHY...
Part Three - A5 D5 G#5
I GOT A HABIT AS I SING TO YOUI'VE GOT A HABIT AND IT'S LONG OVERDUE
I DON'T WANT A HABIT, LIKE I DON'T WANT A FRIEND
I'M SO HAPPY WITH MY RIGHTOUS SELF
Part Four
------------------------------------
------------------------------------
--3-7-3-3-7-3-7---------------------
------------------------------------
------------------------------------
------------------------------------
I'VE TOLD YOU WHY, DON'T YOU WAIT I'VE TOLD YOU WHY...
Part Five - F5 E5 D5
NEVER THOUGHT YOU'D EVER... (3X)
NEVER THOUGHT YOU... (2X)
NEVER THOUGHT YOU'D EVER... (3X)
NEVER THOUGHT YOU...
Part Six
F5 - NEVER THOUGHT YOU'D EVER...
E5 D5 - NEVER THOUGHT YOU'D EVER...
F5 - NEVER THOUGHT YOU'D EVER...
E5 D5 - NEVER THOUGHT YOU'D EVER...
F5 - NEVER THOUGHT YOU'D EVER... - E5 D5 - F5
Part Seven - F5 E5 D5
NEVER THOUGHT YOU'D EVER... (3X)
NEVER THOUGHT YOU... (2X)
NEVER THOUGHT YOU... (2X)
Part EightF5 - E5 - G5 - F#5 - F5 - D5
Part Nine - F5 E5 D5
Chord Chart
A5   D5   G#5   F5   E5   G5   F#5
----------------------------------
----------------------------------
----------------------------------
-----7---------------2------------
-7---5-----6-----3---2-----5----4-
-5---------4-----1---------3----2-
pjpjpjpjpjpjpjpjpjpjpjpjpjpppjpjpjpjpjpjpjpjpjpjpppjpjpjpjpjpjpjpjpjpjpjpjpjp
Red Mosquito
INTRO:
E-|-------------------|-
B-|-------------------|-
G-|-7---------------7-|-
D-|-7-7-----7-7-----7-|-
A-|-5-0h5p0-8-0h5p0-5-|-
E-|-------------------|-
VERSE:
   D  F(let ring)                      D  C(let ring)
E|-2--1--------------------------------2--0----------|
B|-3--1--------------------------------3--1----------|
G|-2--2--------------------------------2--0----------|
D|-0--3--------------------------------0--2----------|
A|----------------------------------------3----------|
E|---------------------------------------------------|
the window,little red mosquito...I was not allowed to (etc.)
 
   D  F(let ring)                      D  C  F  C
E|-2--1--------------------------------2--0--1--0------|
B|-3--1--------------------------------3--1--1--1------|
G|-2--2--------------------------------2--0--2--0------|
D|-0--3--------------------------------0--2--3--2------|
A|----------------------------------------3-----3------|
E|-----------------------------------------------------|
I saw the sun go down, and now..(etc)..somewhere in
PRE CHORUS:
E-|-------------------|-
B-|-------------------|-
G-|-7---------------7-|-
D-|-7-7-----7-7-----7-|-
A-|-5-0h5p0-8-0h5p0-5-|-
E-|-------------------|-
CHORUS:
    F                  C
E-|------------------|-------------|-
B-|---------10-------|-------5-----|-
G-|------10----10----|-----5---5---|-
D-|---10----------10-|---5-------5-|-
A-|-8----------------|-3-----------|-
E-|------------------|-------------|-
    D#            A#            C
E-|-------------|-------------|------|-
B-|-------8-----|-------3-----|------|-
G-|-----8---8---|-----3---3---|-5--5-|-
D-|---8-------8-|---3-------3-|-5--5-|-
A-|-6-----------|-1-----------|-3--3-|-
E-|-------------|-------------|------|-
LITTLE C RIFF AT END OF CHORUS:
E-|-----------|--------------------|-
B-|-----------|--------------------|-
G-|-10--9-----|-(second--10--9--12-|-
D-|--------10-|--chorus)-----------|-
A-|-----------|--------------------|-
E-|-----------|--------------------|-
pjpjpjpjpjpjpjpjpjpjpjpjpjpjpjpjpjpjpjpjpjpjpjpjpjpjpjpjpjpjpjpjpjpjpjpjppjpjp
Lukin
Verse
Gutar 1
   E E E E E   D D   E E E E E E   C C
E|-----------------|-------------------|
B|-----------------|-------------------|
G|-9-9-9-9-9---7-7-|-9-9-9-9-9-9---5-5-|
D|-9-9-9-9-9---7-7-|-9-9-9-9-9-9---5-5-|
A|-7-7-7-7-7---5-5-|-7-7-7-7-7-7---3-3-|
E|-7-7-7-7-7---5-5-|-7-7-7-7-7-7---3-3-|
8 times
Guitar 2
E|-------------7---|
B|-5-5-5-5-5-5-----|
G|-----------------|
D|-----------------|
A|-----------------|
E|-----------------|
16 times
But the E's played on the B string are very quiet, or even
muted, but they accidently sound on ocassion.
Chorus
Just a whole stack of E's, then a stack of D's, then some C's, back
to some D's, then back to the verse again. The chords are played the
same as they are in the verse.
 
 
Verse/Intro: (repeat a lot)
E-----------------------------------
B-----------------------------------
G-9-9-9-9-9-9-\-7---9-9-9-9-9-9-\-5-
D-9-9-9-9-9-9-\-7---9-9-9-9-9-9-\-5-
A-7-7-7-7-7-7-\-5---7-7-7-7-7-7-\-3-
E-----------------------------------
Chorus:
E---------------------------------------------------
B---------------------------------------------------
G-9-x-9-9-9-9-9--7-x-7-7-7-7-7--5-x-5-5-x-5-5-5-/-7-
D-9-x-9-9-9-9-9--7-x-7-7-7-7-7--5-x-5-5-x-5-5-5-/-7-
A-7-x-7-7-7-7-7--5-x-5-5-5-5-5--3-x-3-3-x-3-3-3-/-5-
E---------------------------------------------------
pjpjpjpjpjpjpjpjpjpjpjpjpjpjpjpjpjppjpjpjpjpjpjpjpjpjpjpjpjpjpjpjpjpjpjpjpjpjp
Present Tense
Drop D tuning: DADGBe
The verse is variations of this (shown here is the first time through):
--5------------5-------------5----------3-2-0---0----
----3-3-3-3-3----3---3-------------------------------
----------------------------------------------2---2-2
0-------------------------------<5>------------------
-------------3-----3---3-3-2--------2-0--------------
-----------------------------------------------------
 
Chorus:
D         G   F     G   D       G     F     G D G F G D G
-------------------------------------------             ---
-------------------------------------------             ---
-------------------------------------------  etc.       ---
0--0----X-5-5^3-3-X-5-5^0-0-0-X-5-5-5^3-3-3             X-5
0--0----X-5-5^3-3-X-5-5^0-0-0-X-5-5-5^3-3-3             X-5
12-12\0-X-5-5^3-3-X-5-5^0-0-0-X-5-5-5^3-3-3             X-5
The first time through, Mike lets it end at the G, the second time (not
shown) a D.
Then the bridge goes like this, (with variations on the picking
pattern):
Bb                            A                         G
---------------------------------------------------------------
---------------------------------------------------------------
------10-----10-----10-----10-------9-----9-----9-----9--------
8-8-8----8-8----8-8----8-8----7-7-7---7-7---7-7---7-7---5-5-5--
---------------------------------------------------------------
---------------------------------------------------------------
-----------------------------------------------
-----------------------------------------------
7-----7-----7-----7-------7-----7-----7-----7--
--5-5---5-5---5-5---5-5-5---5-5---5-5---5-5----
-----------------------------------------------
-----------------------------------------------
Then:
Bb                      A                       G
---------------------------------------------------------------------
11-11-11-11-11-11-11-11-10-10-10-10-10-10-10-10-8-8-8-8-8-8-8-8-8-8-8
10-10-10-10-10-10-10-10-9--9--9--9--9--9--9--9--7-7-7-7-7-7-7-7-7-7-7
8--8--8--8--8--8--8--8--7--7--7--7--7--7--7--7--5-5-5-5-5-5-5-5-5-5-5
---------------------------------------------------------------------
---------------------------------------------------------------------
----------------                --
8-8-8-8-8-------                10
7-7-7-7-7------- etc.           8-
5-5-5-5-5------- then this      7-
---------------- several times: --
----------------                --
Outro:
While mike plays the verse, Stone does this:
--------------------------       /14-------14-------14-------
15-13----15-13----15-13--- etc.  ----12-12----12-12----12-12-
------12-------12-------12 then: ----------------------------
--------------------------       ----------------------------
--------------------------       ----------------------------
--------------------------       ----------------------------
And fade....
pjpjpjpjjpjpjpjpjpjppjpjpjpjpjpjpjpjpjpjpjppjpjpjjppjpjpjpjpjpjpjpjpjppjpjpjp
Mankind
chord voicings
B5  = X244XX
E5  = 022XXX OR X799XX
C#5 = X466XX
G#5 = 466XXX
A5  = 577XXX
C5  = X355XX
F#5 = 244XXX
Mankind
intro -
B5 B5 B5 B5 E5 E5 E5 E5 C#5 C#5 C#5 C#5 G#5 G#5 G#5 G#5
B5 B5 B5 B5 E5 E5 E5 E5 C#5 C#5 A5 A5 A5 A5
(ok main riff here)
C5 C5 C5 C5 C5 F#5
C5 C5 C5 C5 C5 F#5
C5 C5 C5 C5 C5 F#5
You'll be,
C5 C5 C5 C5 C5 F#5
going out with radio
C5 C5 C5 C5 C5 F#5
going out with disco
C5 C5 C5 C5 C5 F#5
going out with bacchanal
C5 C5 C5 C5 C5 F#5
I'll be,
C5 C5 C5 C5 C5 F#5
going out with telephone
C5 C5 C5 C5 C5 F#5
going out alone
C5 C5 C5 C5 C5 F#5
to the radar zone
B5 B5 B5 B5   E5 E5 E5 E5 C#5 C#5 C#5 C#5 G#5 G#5 G#5 G#5
it's all just inadvertent imitation       I don't mean mine
B5 B5 B5 B5 E5 E5 E5 E5    C#5 C#5 G#5 G#5 G#5 G#5
it's all across this nation
B5 B5 B5 B5  E5 E5 E5 E5 C#5 C#5 C#5 C#5 G#5 G#5 G#5 G#5
if it's just inadvertent simulation      A pattern in all mankind
B5 B5 B5 B5 E5 E5 E5 E5 C#5 C#5 C#5 C#5 A5 A5 A5 A5
what's got the whole world fakin'?
C5 C5 C5 C5 C5 F#5
I'll be,
C5 C5 C5 C5 C5 F#5
playin' with my magazine
C5 C5 C5 C5 C5 F#5
usin' up my lysterine
C5 C5 C5 C5 C5 F#5
like ovaltine
C5 C5 C5 C5 C5 F#5
and you'll be
C5 C5 C5 C5 C5 F#5
dippin in your battleship
C5 C5 C5 C5 C5 F#5
for the latest tip
C5 C5 C5 C5 C5 F#5
for the latest dream
B5 B5 B5 B5   E5 E5 E5 E5 C#5 C#5 C#5 C#5 G#5 G#5 G#5 G#5
it's all just inadvertent imitation       I don't mean mine
B5 B5 B5 B5 E5 E5 E5 E5    C#5 C#5 G#5 G#5 G#5 G#5
it's all across this nation
B5 B5 B5 B5  E5 E5 E5 E5 C#5 C#5 C#5 C#5 G#5 G#5 G#5 G#5
if it's just inadvertent simulation      A pattern in all mankind
B5 B5 B5 B5 E5 E5 E5 E5 C#5 C#5 C#5 C#5 A5 A5 A5 A5
what's got the whole world fakin'?
-SOLO OVER THIS BASSLINE- this basline is repeated 3 times
-solo is Em pent...
G----------------------------------------------------
D----------------------------------------------------
A----------------------------------------------------
E-0-0-0-0-0-9-0-0-0-0-10-0-0-0-0-11-0-0-0-0-12-0-0-0-
                                            ^
third time through dont hit the 12 just leave it open
mike just rides an E while stone solos
-muted strings here-
B5 B5 B5 B5  E5 E5 E5 E5 C#5 C#5 C#5 C#5 G#5 G#5 G#5 G#5
if it's just inadvertent imitation       a pattern in all mankind
B5 B5 B5 B5  E5 E5 E5 E5           C#5 C#5 G#5 G#5
what's got the whole world fakin'?
B5 B5 B5 B5  E5 E5 E5 E5           C#5 C#5 G#5 G#5
what's got the whole world fakin'?
B5 B5 B5 B5  E5 E5 E5 E5           C#5 C#5 G#5 G#5
what's got the whole world fakin'?
B5 B5 B5 B5  E5 E5 E5 E5           C#5 C#5 G#5 G#5
what's got the whole world fakin'?
B5 B5 B5 B5  E5 E5 E5 E5           C#5 C#5 G#5 G#5 G#5 G#5
what's got the whole world fakin'?
B5 B5 B5 B5  E5 E5 E5 E5           C#5 C#5 G#5 G#5 G#5 G#5
what's got the whole world fakin'?
B5 B5 B5 B5  E5 E5 E5 E5 C#5 C#5 C#5 C#5 A5 A5 A5 A5 B5/
 
 
This is played in standard tuning w/medium distortion
Intro/Chorus:
E------------------------------------------------
A------------------------------------------------
D-4-4-4-4-4-4-4-4-9-9-9-9-9-9-9-9-6-6-6-6-6-6-6-6
G-4-4-4-4-4-4-4-4-9-9-9-9-9-9-9-9-6-6-6-6-6-6-6-6
B-2-2-2-2-2-2-2-2-7-7-7-7-7-7-7-7-4-4-4-4-4-4-4-4
E------------------------------------------------
E------------------------------------------------
A------------------------------------------------
D------------------------------------------------
G-6-6-6-6-6-6-6-6--------------------------------
B-6-6-6-6-6-6-6-6--------------------------------
E-4-4-4-4-4-4-4-4--------------------------------
Then the 'going out with radio' part
E--------------------------------------
A--------------------------------------
D-5-5-5-5-5-5-5-5-5/4-4----------------
G-5-5-5-5-5-5-5-5-5/4-4-4-4-4-4-4-4-4-4
B-3-3-3-3-3-3-3-3-3/2-2-4-4-4-4-4-4-4-4
E-----------------------2-2-2-2-2-2-2-2
pjpjppjpjpjpjpjpjpjpjpjpjpjpjpjpjpjpjjpjpjpjpjpjpjpjjppjpjpjppjpjpjpjpjpjpjp
I'm Open
THE E CHORD BIT:
E-|---0------0------0------0------0------2--|-
B-|-----0------0------0------0------0---(3)-|-
G-|-------1------1------1------1------1-(2)-|-
D-|-----------------------------------------|-
A-|-2---------------------------------------|-
E-|-0---------------------------------------|-
THE G CHORD BIT:
E-|----3------3------3------3--------7--|-
B-|------3------3------3------3-----(8)-|-
G-|--------0------0------0------0---(7)-|-
D-|-------------------------------------|-
A-|-------------------------------------|-
E-|-3-----------------------------------|-
pjpjpjpjpjpjpjpjpjpjpjpjppjpjpjpjpjpjpjpjpjpjpjpjpjpjppjpjpjpjpjpjppjpjpjppjp
Around The Bend
   A6     A6 A7 A  A7 D
E --------------------2--------------
B -7------7--5--2--5--3--------------
G -6------6--6--2--6--2--------------
D -7------7--5--2--5-----------------
A -----------------------------------
E -----------------------------------
Chorus:
D E Bb
 
----------------------------------------------0---2---
-7---5--7---7------5------2------5------3-------------
----------------------------------------------2-------
-7------------7------5------2------5------------------
------------------------------------------------------
------------------------------------------------------
pjpjpjpjpjpjpjpjpjppjpjpjpjpjpjpjpjpjpjpjpjpjpjppjpjppjpppjpjpjpjpjppjpjpjpjpjp
pjpjpjpjpjpjpjpjpjpjpjpjpjpjpjpjpjpj
pj   From the 1998 Album 'Yield'    pj
pjpjpjpjpjpjpjppjpjpjppjpjpjpjpjpjpj
pjpjpjpjpjpjpjpjpjpjpjppjpjpjpjpjpjpjpjppjpjpjppjppjpjpjpjpjpjpjpppjpppjpjpjpjpp

 
Brain Of J
All guitars drop 6th string E to a D
(Stone and Mike both play this one tuned down, but I have a standard
tuning version as well, scroll down to see it...)
This was in an issue of guitar world March 1998.
McCready:
"Like the guitar tone on "Brain of J,"  I was looking for a crazy effect
that I finally got by combining two guitar sounds.  The really
menacing-sounding one involves a chorus and a wah wah pedal set halfway
down, and the other track is just a heavy, distorted guitar without any
effects on it."
Legend
^ = slight bend
/ = slide
p = pull off
h = hammer
Intro
E-------------------------------------------------------------------
B-------------------------------------------------------------------
G-------------------------------------------------------------------
D-----9-9-9-8-8-8-7---------5----------9-9-9-8-8-8-7-7-7-7-7-7-7-7--
A-----9-9-9-8-8-8-7----7----5^--0------9-9-9-8-8-8-7-7-7-7-7-7-7-7--
D-----9-9-9-8-8-8-7--0-7-0--------0----9-9-9-8-8-8-7-7-7-7-7-7-7-7--
 
Drums and Guitar 2 come in.  Guitar 2 is doing something like this on
a manual wah wah pedal:
E--------------------------------------------------------------
B--------------------------------------------------------------
G--------------------------------------------------------------
D--------------------------------------------------------------
A---------------------------5^--0------------------------------
D-----9-9-9-8-8-8-7--0-7-0--------0----9-9-9-8-8-8-7-7-7-7-7-7-
 
When Ed starts singing, guitar 1 continues the intro while guitar 2
does something like this on a wah wah pedal...
     <wah wah cocked back>            <wah wah cocked forward>
E------------------------------------10-p-0-h-10-p-0-h-10-p-0---
B----12-p-0-h-12-p-0-h-12-p-0-h-12------------------------------
G---------------------------------------------------------------
D---------------------------------------------------------------
A---------------------------------------------------------------
D---------------------------------------------------------------
 
Chorus
Not the accurate number of strums...
E----------------------|---------------------
B----------------------|---------------------
G----------------------|---------------------
D-----10-----6-----3---|--10------6-----8----
A-----10-----6-----3---|--10------6-----8----
D-----10-----6-----3---|--10------6-----8----
"The whole world will be different soon....the whole world will be relieved"
 
Mini solo
E-------------------------------------------------------
B-----16-15-11-----16-15-11-/-13-----played x2----------
G-----0--0--0------0--0--0--/-0-------------------------
D-------------------------------------------------------
A-------------------------------------------------------
D-------------------------------------------------------
 
Bridge. Quiet part, just bass and drums and then:
E-------------------------------------------------------
B------5-h-7-p-0--------------5-h-7-p-0-----------------
G-----------------4--7---2---------------4--7-----------
D-------------------------------------------------------
A-------------------------------------------------------
D-------------------------------------------------------
Solo
whenever there is 9br9
                             9br9
that's a double stop quarter step bend
-|------------------------------------------------------------------
-|------------------------------------------------------------------
-|-9b11vvvvvvvvv-9b11-9b11-11-11-11-11-11-11-11-9b11r9-7-9b11r9-7---
-|----------------------------------------------------------------9-
-|------------------------------------------------------------------
-|------------------------------------------------------------------
                      hold---------------------|
-|-------------|------------------------------------
-|-------------|-7br7---7br7---7b--9b10r9-----------
-|-------------|-7br7---7br7---7b--9b10r9-7---7-----
-|-7-9-7---7---|------9------9--------------9---9-7-
-|-------9---9-|------------------------------------
-|-------------|------------------------------------
 
-|-10b12r10----10---------------|-12-12-12-12-12-12-12-12-12\--
-|----------12----12-10-12vvvv\-|-12-12-12-12-12-12-12-12-12\\-
-|------------------------------|----------------------------\-
-|------------------------------|------------------------------
-|------------------------------|------------------------------
-|------------------------------|------------------------------
                                  continue to pick as you slide down
-|-12-12-12-12-12-12-12-12-12\--|-----------------------------------
-|-12-12-12-12-12-12-12-12-12\\-|-9br9---9br9---9br9----------------
-|----------------------------\-|-9br9-7-9br9-7-9br9-7--7-9-7-9-7-9-
-|------------------------------|-----------------------------------
-|------------------------------|-----------------------------------
-|------------------------------|-----------------------------------
                  same as above
-|-7----------------10b13vvvr10-8-
-|---10p7---7---------------------
-|--------9---9-7-----------------
-|----------------9---------------
-|--------------------------------
-|--------------------------------
 
Then back to the chorus
Once again, not the accurate number of strums...
E----------------------|---------------------
B----------------------|---------------------
G----------------------|---------------------
D-----10-----6-----3---|--10------6-----8----
A-----10-----6-----3---|--10------6-----8----
D-----10-----6-----3---|--10------6-----8----
 
And then the outro.  It ends one note higher than the intro.
E----------------------------------------------------------------
B----------------------------------------------------------------
G----------------------------------------------------------------
D----10-10-10-9-9-9-8---------6----------10-10-10-9-9-9-8-8-8-8--
A----10-10-10-9-9-9-8----8----6^--0------10-10-10-9-9-9-8-8-8-8--
D----10-10-10-9-9-9-8--0-8-0--------0----10-10-10-9-9-9-8-8-8-8--Played x4
pjpjpjpjpjpjpjpjpjpjpjpjpjpjpjpjppjjpjpjpjpjpjpjpjpjpjpjpjpjpjpjpjpjpjpjpjpjpjp
 
Faithfull
Standard Tuning
Legend
^ = 1/2 bend
h = hammer
p = pull off
/ = slide
 
Intro
E----3-3-3-3-3-3-3-3-3--6--5-5-5-5-5-5-5-5-5--7-----
B----1-1-1-1-1-1-1-1-1--4--3-3-3-3-3-3-3-3-3--5-----
G----2-2-2-2-2-2-2-2-2--5--4-4-4-4-4-4-4-4-4--------
D---------------------------------------------------
A---------------------------------------------------
E---------------------------------------------------
E----3-3-3-3-3-3-3-3-3--6--5-5-5-5-7-5-5-5-5-------------
B----1-1-1-1-1-1-1-1-1--4--3-3-3-3-3-3-3-3-3--3-h5p-0----
G----2-2-2-2-2-2-2-2-2--5--4-4-4-4-4-4-4-4-4-------------
D--------------------------------------------------------
A--------------------------------------------------------
E--------------------------------------------------------
"Plaque on the wall says that.....no ones slept here...it's rare"
E----3-3-3-3-3-3-3-3-3--6--5-5-5-5-7-5-5-5-5-7-----------------------
B----1-1-1-1-1-1-1-1-1--4--3-3-3-3-3-3-3-3-3-3-----------------------
G----2-2-2-2-2-2-2-2-2--5--4-4-4-4-4-4-4-4-4-4--------repeat x4------
D--------------------------------------------------------------------
A--------------------------------------------------------------------
E--------------------------------------------------------------------
Cue distortion
 
 "An echo nobody hears....it goes it goes it goes.."
E-------------3--------------------3-----
B-------------3--------------------3-----
G-------------0--------------------0-----
D----5^---3---0-----3-3-3-3-3-3-0--0-----
A----3^---1---2-----1-1-1-1-1-1-0--2-----
E-------------3--------------------3-----repeat
 
"We're faithful...             we all believe...we all believe it..."
E--------3-3----------3-3-----------------------3-3-3-3-3-----
B--------3-3----------3-3-----------------------3-3-3-3-3-----
G----5---4-4------5---4-4---/-12-----5-5-5-5-5--4-4-4-4-4-----
D----5---5-5------5---5-5------------5-5-5-5-5--5-5-5-5-5-----
A----3---5-5------3---5-5------------3-3-3-3-3--5-5-5-5-5-----
E--------3-3----------3-3-----------------------3-3-3-3-3-----
"We're faithful...             we all believe...we all believe it..."
E--------3-3----------3-3-----------------------3-3-3-3-3-----
B--------3-3----------3-3-----------------------3-3-3-3-3-----
G----5---4-4------5---4-4---/-12-----5-5-5-5-5--4-4-4-4-4-----
D----5---5-5------5---5-5------------5-5-5-5-5--5-5-5-5-5-----
A----3---5-5------3---5-5------------3-3-3-3-3--5-5-5-5-5-----
E--------3-3----------3-3-----------------------3-3-3-3-3-----
"We're faithful...             we all believe...we all believe it..."
E--------3-3----------3-3-----------------------3-3-3-3-3-----
B--------3-3----------3-3---/-15----------------3-3-3-3-3-----
G----5---4-4------5---4-4------------5-5-5-5-5--4-4-4-4-4-----
D----5---5-5------5---5-5------------5-5-5-5-5--5-5-5-5-5-----
A----3---5-5------3---5-5------------3-3-3-3-3--5-5-5-5-5-----
E--------3-3----------3-3-----------------------3-3-3-3-3-----
"We're faithful...             we all believe...we all believe it..."
E--------3-3----------3-3-----------------------3-3-3-3-3-----
B--------3-3----------3-3---/-15----------------3-3-3-3-3-----
G----5---4-4------5---4-4------------5-5-5-5-5--4-4-4-4-4-----
D----5---5-5------5---5-5------------5-5-5-5-5--5-5-5-5-5-----
A----3---5-5------3---5-5------------3-3-3-3-3--5-5-5-5-5-----
E--------3-3----------3-3-----------------------3-3-3-3-3-----
 
Fast part goes something like this:
E-------------------------------------------------------------
B-----3--3---0---5^--0---5-----12-12--10-12----12-12--10-12---
G-----3--3---0---5^--0---5-----12-12--12-12----12-12--12-12---
D-----3--3---0---5^--0---5-----10-10--10-10----10-10--10-10---
A-------------------------------------------------------------
E-------------------------------------------------------------
 
Stone does this:
E------------------------------------------------------------------------
B------------------------------------------------------------------------
G--------------------------------------------12-12--10-12--12-12--10-12--
D----7^--5--0-----13------7^--5--0----15-----12-12--12-12--12-12--12-12--
A-----------------13------------------15-----10-10--10-10--10-10--10-10--
E-----------------11------------------13---------------------------------
Mike does this:
E---------------------------------------------------------------
B----2^-0-----8-----2^-0-----10---------------------------------
G---------0---8----------0---10-----12-12--10-12--12-12--10-12--
D-------------8--------------10-----12-12--12-12--12-12--12-12--
A-----------------------------------10-10--10-10--10-10--10-10--
E---------------------------------------------------------------
Stone
E----------------------------------------------------------------------
B----------------------------------------------------------------------
G------------------------------------------12-12--10-12--12-12--10-12--
D-----7^--5--0----8------7^--5--0---10-----12-12--12-12--12-12--12-12--
A-----------------8-----------------10-----10-10--10-10--10-10--10-10--
E-----------------6------------------8---------------------------------
Mike
E--------------------------------------------------------------
B----2^-0-----3-----2^-0-----3---------------------------------
G---------0---3----------0---3-----12-12--10-12--12-12--10-12--
D-------------3--------------3-----12-12--12-12--12-12--12-12--
A----------------------------------10-10--10-10--10-10--10-10--
E--------------------------------------------------------------
Stone's Little Riff
E-----------------------------------------------
B--------6^---6^--------------------------------
G------------------5--h-7---5-------------------
D-------------------------------5---0-----------
A-----------------------------------------------
E-----------------------------------------------
Stone
E------------------------------------------------------------------------
B------------------------------------------------------------------------
G--------------------------------------------12-12--10-12--12-12--10-12--
D----7^--5--0-----13------7^--5--0----15-----12-12--12-12--12-12--12-12--
A-----------------13------------------15-----10-10--10-10--10-10--10-10--
E-----------------11------------------13---------------------------------
Mike
E---------------------------------------------------------------
B----2^-0-----8-----2^-0-----10---------------------------------
G---------0---8----------0---10-----12-12--10-12--12-12--10-12--
D-------------8--------------10-----12-12--12-12--12-12--12-12--
A-----------------------------------10-10--10-10--10-10--10-10--
E---------------------------------------------------------------
 
 An echo..........nobody hears it goes it goes it goes.."
E-------------3--------------------3-----
B-------------3--------------------3-----
G-------------0--------------------0-----
D----5^---3---0-----3-3-3-3-3-3-0--0-----
A----3^---1---2-----1-1-1-1-1-1-0--2-----
E-------------3--------------------3-----
 
"We're faithful...             we all believe...we all believe it..."
E--------3-3----------3-3-----------------------3-3-3-3-3-----
B--------3-3----------3-3-----------------------3-3-3-3-3-----
G----5---4-4------5---4-4---/-12-----5-5-5-5-5--4-4-4-4-4-----
D----5---5-5------5---5-5------------5-5-5-5-5--5-5-5-5-5-----
A----3---5-5------3---5-5------------3-3-3-3-3--5-5-5-5-5-----
E--------3-3----------3-3-----------------------3-3-3-3-3-----
"We're faithful...             we all believe...we all believe it..."
E--------3-3----------3-3-----------------------3-3-3-3-3-----
B--------3-3----------3-3-----------------------3-3-3-3-3-----
G----5---4-4------5---4-4---/-12-----5-5-5-5-5--4-4-4-4-4-----
D----5---5-5------5---5-5------------5-5-5-5-5--5-5-5-5-5-----
A----3---5-5------3---5-5------------3-3-3-3-3--5-5-5-5-5-----
E--------3-3----------3-3-----------------------3-3-3-3-3-----
"We're faithful...             we all believe...we all believe it..."
E--------3-3----------3-3-----------------------3-3-3-3-3-----
B--------3-3----------3-3---/-15----------------3-3-3-3-3-----
G----5---4-4------5---4-4------------5-5-5-5-5--4-4-4-4-4-----
D----5---5-5------5---5-5------------5-5-5-5-5--5-5-5-5-5-----
A----3---5-5------3---5-5------------3-3-3-3-3--5-5-5-5-5-----
E--------3-3----------3-3-----------------------3-3-3-3-3-----
"We're faithful...             we all believe...we all believe it..."
E--------3-3----------3-3-----------------------3-3-3-3-3-----------------------
B--------3-3----------3-3---/-15----------------3-3-3-3-3-----------------------
G----5---4-4------5---4-4------------5-5-5-5-5--4-4-4-4-4-----------------------
D----5---5-5------5---5-5------------5-5-5-5-5--5-5-5-5-5-----7-h-9-/-5-/-3-h-5-
A----3---5-5------3---5-5------------3-3-3-3-3--5-5-5-5-5-----------------------
E--------3-3----------3-3-----------------------3-3-3-3-3-----------------------
 
Then back to the beginning.  Except it ends like this:
E----3-3-3-3-3-3-3-3-3-6-----------
B----1-1-1-1-1-1-1-1-1-4--3--------
G----2-2-2-2-2-2-2-2-2-5--0--------
D----------------------------------
A----------------------------------
E----------------------------------
pjpjpjpjpjpjpjpjpjpjpjpjpjpjpjpjpjpjpjpjpjpjpjpjpjpjpjpjpjpjpjpjpjpjpjpjpjpjpjpjp
No Way
Drop E to D tuning
Legend
/ = slide
X = rake strings
Intro.  To get the sound of the guitar right, you can switch on a wah wah
pedal and leave it in one position. It gives it that hollow sound.
E----------------------------------------------
B----------------------------------------------
G----------------------------------------------
D------9----9-9--9-9--/--5-5-5-5-5-------------
A------9----9-9-11-9--/--5-5-5-5-5-------------
D------9----9-9--9-9--/--5-5-5-5-5-------------
 
Heavy distortion.
"ooooh lets call it an angel....ooooh lets call it an angel..."
E---------------------------------------------
B---------------------------------------------
G---------------------------------------------
D-------0-0-0-0-2-2-2-2-3-3-3-3-6-6-6-6-------
A-------0-0-0-0-2-2-2-2-3-3-3-3-6-6-6-6-------
D-------0-0-0-0-2-2-2-2-3-3-3-3-6-6-6-6-------
 
Bridge, with wah wah pedal:
E--------------------------------------------------------
B-------------------------------------3------------------
G-------3--X--2-------0-2-3--X--2---2---2-0--------------
D-------0--X--0--3------0-0--X--0------------------------
A--------------------------------------------------------
D--------------------------------------------------------
E--------------------------------------------------------
B--------------------------------------------------------
G-------3--X--2------------------------------------------
D-------0--X--0--3---0-3-3/5--5/12-----------------------
A--------------------------------------------------------
D--------------------------------------------------------
pjpjpppjpjpjpjpjpjpjpjpjpjpjppjpjpjpjpjpjpjpjpjpjpjppjpjpjpjpjpjpjpjpjpjppjpjp
Given To Fly
standard tuning
Intro and Verse
E |-------------------------7-------------------------------------
B |------------8---------------8-------------7------------5---3---
G |---------------0---------------0-------------0---------0---0---
D |---------------------------------------------------------------
A |-----0^10----------10---------------8^9-----------9----7---5---
E |---------------------------------------------------------------
 
E |-------------------------7---------------------------------
B |------------8---------------8-------------7------------3---
G |----------------0--------------0--------------0--------0---
D |-----------------------------------------------------------
A |-----0^10-----------10--------------8^9-----------9----5---
E |-----------------------------------------------------------
                       *
E |-------------------5------------2--------5------------2--
B |--3---------------------3---5-------3---------3---5------
G |-------0-------------------------------------------------
D |-------------------4---------------------4---------------
A |-----------5---------------------------------------------
E |---------------------------------------------------------
The chords are as follows
E |-----7----6----4----2----
B |-----8----7----5----3----
G |-----0----0----0----0----
D |-----9----8----6----4----
A |----10----9----7----5----
E |-------------------------
verse starts picking up:Guitar comes in strumming D w/ distortion
E |--7-7-7-7-8-7--7-7-7-7-8-7--7-7-7-7-8-7--7-7-7-7-8-7--2-2-2-2-2-2-2|
B |--8-8-8-8-8-8--8-8-8-8-8-8--8-8-8-8-8-8--8-8-8-8-8-8--3-3-3-3-3-3-3|
G |--0-0-0-0-0-0--0-0-0-0-0-0--0-0-0-0-0-0--0-0-0-0-0-0--2-2-2-2-2-2-2|
D |-------------------------------------------------------------------|
A |-------------------------------------------------------------------|
E |-------------------------------------------------------------------|
let an open G note ring throughout above.
chorus:"he's..."
Guitar 1:*
E |--------x-8--x-8--x-8--x-x-x-x-x-x--x-8--x-8--x--8--8--7-5-3-3-3-3-|
B |--------x-8--x-8--x-8--x-x-x-x-x-x--x-8--x-8--x--8--8--7-5-3-3-3-3-|
G |--------x-9--x-9--x-9--x-x-x-x-x-x--x-9--x-9--x--9--9--8-6-4-4-4-4-|
D |--------x-10-x-10-x-10-x-x-x-x-x-x--x-10-x-10-x--10-10-9-7-5-5-5-5-|
A |--------x-10-x-10-x-10-x-x-x-x-x-x--x-10-x-10-x--10-10-9-7-5-5-5-5-|
E |--------x-8--x-8--x-8--x-x-x-x-x-x--x-8--x-8--x--8--8--7-5-3-3-3-3-|
*instead of the palm mutings before the C chord...you can substitute a B at
the 7th fret...it'll sound a little better but not much different.
Guitar 2:
E |----------------------------------------------------3-3-3-------3-3|
B |-----------------------------------------5-5--4--2--3-3-3-------3-3|
G |--x-5-x-5-x-5--x-x-x-x-x-x--x-5-x-5-x-5--5-5--4--2--0-0-0-0h2p0-0-0|
D |--x-5-x-5-x-5--x-x-x-x-x-x--x-5-x-5-x-5--5-5--4--2--0-0-0-------0-0|
A |--x-3-x-3-x-3--x-x-x-x-x-x--x-3-x-3-x-3--3-3--2--0-----------------|
E |----------------------------------------------------3-3-3-------3-3|
at the end of the chorus...this is played as a fill:
E |-------------------------------------------------------------------|
B |-------------------------------------------------------------------|
G |-0---0h2--0--2--0--twice then pick up w/ the verse riff------------|
D |-------------------------------------------------------------------|
A |-------------------------------------------------------------------|
E |-------------------------------------------------------------------|
during the next verse, this fill starts to come in before it gets heavy:
E |-------------------------------------------------------------------|
B |-------------------------------------------------------------------|
G |--7-7---7-7----7-7--7-7---7-7---7-7-then build into the D----------|
D |-----------------------------------------------chord like the------|
A |-------------------------------------------------------1st verse---|
E |-------------------------------------------------------------------|
fill during heavy part of 2nd verse:
E |-------------------------------------------------------------------|
B |-------------------------------------------------------------------|
G |-------------------------------------------------------------------|
D |---7-7-7-7s5---5s4---2p0--2p0--7-7-7-7s5---5s4--2p0--2p0-----------|
A |-------------------------------------------------------------------|
E |-------------------------------------------------------------------|
E |-------------------------------------------------------------------|
B |-------------------------------------------------------------------|
G |-------------------------------------------------------------------|
D |---7-7-7-7s5---5s4---2p0--2p0--7-7-7-7s5---5s4--2p0--2p0-0-0-s4-4--|
A |-------------------------------------------------------------------|
E |-------------------------------------------------------------------|
 
Ending                                             6x
E |----7------------------------7-----8---7----------
B |-------8--6-----8---6---8------8----------8--6----
G |--------------------------------------------------
D |--------------------------------------------------
A |--------------------------------------------------
E |--------------------------------------------------
 
                                let ring
E |----7----------------------------------------------------------------------------------
B |--------8---6------8 / 3-----------------------3----------3---------3---------3--------
G |---------------------------------------2-------2-----2----2----2----2----2----2----2---
D |---------------------------------------0-------0-----0----0----0----0----0----0----0---
A |---------------------------------------------------------------------------------------
E |-----------------------------------------------------3---------3---------3---------3---
pjpjpjpjpjpjpjpjpjpjpjpjpjpjpjpjpjpjpjpjpjpjpjpjpjpjpjpjpjppjpjpjpjpjpjpjpjppjp
Wishlist
Standard Tuning
Legend
/ = Slide
Intro
I wish I was a neutron bomb, for once I could go off.......
E-------------------------------------------------------
B-------------------------------------------------------
G-------------------------------------------------------
D-----2-2-0-0-2-2-0-0-2-2-0-0-2-2-0-0-3-3-3-3-3-3-------
A-----3-3-3-3-3-3-3-3-3-3-3-3-3-3-3-3-3-3-3-3-3-3-------
E-------------------------------------------------------
  F              C           F              C
I wish I was the evidence, I wish I was the sound
   F             C                   G               F
Of fifty million hands upraised and opened toward the sky
 
Mini solo
        C          F            C
E-------------------------------------------------------
B-------------------------------------------------------
G-------5------2-/-5-/-7----7-/-9-/-5-------------------
D-------------------------------------------------------
A-------------------------------------------------------
E-------------------------------------------------------
Long solo in the middle of song
E----------------------------------------------------------------
B-------8-/-10-(10)-/-13-12---13-10-12-12--10-h-12-p-10--/-5-----
G----------------------------------------------------------------
D----------------------------------------------------------------
A----------------------------------------------------------------
E----------------------------------------------------------------
 
E----------------------------------------------------------------
B-------8-/-10-(10)-/-13-12---15-13-12------15-12-10-------------
G--------------------------------------14------------12-/-9------
D----------------------------------------------------------------
A----------------------------------------------------------------
E----------------------------------------------------------------
 
E----------------------------------------------------------------
B------8-/-10-(10)-/-13-12--13--12--10--8----13--12---5----------
G----------------------------------------------------------------
D----------------------------------------------------------------
A----------------------------------------------------------------
E----------------------------------------------------------------
Fade out solo
E---------------------------------------------------------------------
B----3-5-3-5-3-5-3---3-/-6---6-/-5------3-5-3-5-3-5-3---3-/-6---6/5---
G------------------5----------------------------------5---------------
D---------------------------------------------------------------------
A---------------------------------------------------------------------
E---------------------------------------------------------------------
Fade out
  F            C               F                  C
I wish I was a radio song, the one you could turn up
  F             C                G                 F
I wish, I wish, I wish, I wish, i guess it never stops
pjpjpjpjpjpjpjpjpjpjpjpjpjpjpjpjpjppjppjpjpjpjpjpjpjpjpjpjpjpjpjppjpjpjpjpjpjp
Pilate
standard tuning
 
 
            Talk of circles                   Punching Down
E---------------------------------------------------------------
B---------------------------------------------------------------
G-11-11-11--9--9--9---7--7----------11-11-11--12--12--12---7--7-
D--0--0--0--0--0--0---0--0-----------0--0--0---0---0---0---0--0-
A--9--9--9--7--7--7---5- 5-----------9--9--9--10--10--10---5--5-
E---------------------------------------------------------------
 
            Looking in Drawing                Circles Down
E---------------------------------------------------------------
B---------------------------------------------------------------
G-11-11-11--9--9--9---7--7----------11-11-11--12--12--12---7--7-
D--0--0--0--0--0--0---0--0-----------0--0--0---0---0---0---0--0-
A--9--9--9--7--7--7---5--5-----------9--9--9--10--10--10---5--5-
E---------------------------------------------------------------
 
E---------------------
B---------------------
G-10-10-10-10----4--4-
D--0--0--0--0----0--0-
A--8--8--8--8----2--2-
E---------------------
 
 
            Falling Off                   the south marking ground
E----------------------------------------------------------------
B----------------------------------------------------------------
G-11-11-11--9--9--9---7--7------------11-11-11--12-12-12---7--7--
D--0--0--0--0--0--0---0--0-------------0--0--0---0--0--0---0--0--
A--9--9--9--7--7--7---5--5-------------9--9--9--10-10-10---5--5--
E----------------------------------------------------------------
 
            Talking out of turn            drawing circles down
E----------------------------------------------------------------
B----------------------------------------------------------------
G-11-11-11--9--9--9---7--7------------11-11-11--12-12-12---7--7--
D--0--0--0--0--0--0---0--0-------------0--0--0---0--0--0---0--0--
A--9--9--9--7--7--7---5--5-------------9--9--9--10-10-10---5--5--
E----------------------------------------------------------------
[chorus]
       Like pilate      I Have A Dog
E----------------------------------------------------------------
B----------------------------------------------------------------
G-----------3-3------------3-3-3------------3-3-3------------3-3-
D--5-5-5-5--3-3---5-5-5-5--3-3-3---5-5-5-5--3-3-3---5-5-5-5--3-3-
A--5-5-5-5--1-1---5-5-5-5--1-1-1---5-5-5-5--1-1-1---5-5-5-5--1-1-
E--3-3-3-3--------3-3-3-3----------3-3-3-3----------3-3-3-3------
 
       Like pilate     I Have A Dog
E----------------------------------------------------------------
B----------------------------------------------------------------
G-----------3-3------------3-3-3------------3-3-3------------3-3-
D--5-5-5-5--3-3---5-5-5-5--3-3-3---5-5-5-5--3-3-3---5-5-5-5--3-3-
A--5-5-5-5--1-1---5-5-5-5--1-1-1---5-5-5-5--1-1-1---5-5-5-5--1-1-
E--3-3-3-3--------3-3-3-3----------3-3-3-3----------3-3-3-3------
 
           Walk's me out of town             still one's a crowd
E----------------------------------------------------------------
B----------------------------------------------------------------
G-11-11-11--9--9--9--7--7------------11-11-11--12-12-12---7--7---
D--0--0--0--0--0--0--0--0-------------0--0--0---0--0--0---0--0---
A--9--9--9--7--7--7--5--5-------------9--9--9--10-10-10---5--5---
E----------------------------------------------------------------
         Making angels in the dirt   looking up,looking all around
E----------------------------------------------------------------
B----------------------------------------------------------------
G-11-11-11--9--9--9--7--7------------11-11-11--12-12-12---7--7---
D--0--0--0--0--0--0--0--0-------------0--0--0---0--0--0---0--0---
A--9--9--9--7--7--7--5--5-------------9--9--9--10-10-10---5--5---
E----------------------------------------------------------------
 
       Like pilate      I Have a Dog
E----------------------------------------------------------------
B----------------------------------------------------------------
G-----------3-3------------3-3-3------------3-3-3------------3-3-
D--5-5-5-5--3-3---5-5-5-5--3-3-3---5-5-5-5--3-3-3---5-5-5-5--3-3-
A--5-5-5-5--1-1---5-5-5-5--1-1-1---5-5-5-5--1-1-1---5-5-5-5--1-1-
E--3-3-3-3--------3-3-3-3----------3-3-3-3----------3-3-3-3------
 
       Like pilate      I Have a Dog
E----------------------------------------------------------------
B----------------------------------------------------------------
G-----------3-3------------3-3-3------------3-3-3------------3-3-
D--5-5-5-5--3-3---5-5-5-5--3-3-3---5-5-5-5--3-3-3---5-5-5-5--3-3-
A--5-5-5-5--1-1---5-5-5-5--1-1-1---5-5-5-5--1-1-1---5-5-5-5--1-1-
E--3-3-3-3--------3-3-3-3----------3-3-3-3----------3-3-3-3------
 
 
 
[Bridge]
E----------------------------------------------------------------
B----------------------------------------------------------------
G-11--(11)------------------------4-4-4--6-6-6--7-7-7------------
D--0------------------------------0-0-0--0-0-0--0-0-0--4-4--5-5--
A--9------------------------------2-2-2--4-4-4--5-5-5--0-0--0-0--
E------------------------------------------------------2-2--3-3--
 (hold)
 
Stunned by my own reflection  It's lookin back,sees me to clearly
E----------------------------------------------------------------
B----------------------------------------------------------------
G----------------------------------------------------------------
D-----------------------------------1----------------------------
A-----------------------------------3----------------------------
E-----------------------------------3----------------------------
 
 And I swore I'd never go there again   Not unlike a friend that
E----------------------------------------------------------------
B----------------------------------------------------------------
G--4-4-4---6-6-6---7-7-7-----------------------------------------
D--0-0-0---0-0-0---0-0-0-----4-4--5-5------4-4--5---7-7----------
A--2-2-2---4-4-4---5-5-5-----0-0--0-0------0-0--0---0-0----------
E----------------------------2-2--3-3------2-2--3---5-5----------
 
 
  Politely drags you down, you down, you down, you down
E------------------------------------------------------
B------------------------------------------------------
G------------------------------------------------------
D--4-4--5--7-----9-10----------------------------------
A--0-0--0--0-----0--0----------------------------------
E--2-2--3--5-----7--8----------------------------------
*(this isn't accurate, but it is as close as I can get)
 
 (repeat chorus x2)
[outro]
E-------------------------------------------------------
B-------------------------------------------------------
G-11---12-12--7--7----4-4---6-6-------------------------
D--0----0--0--0--0----0-0---0-0-------------------------
A--9---10-10--5--5----2-2---4-4-------------------------
E-------------------------------------------------------
*(again not accurate, but close enough)
pjpjpjpjpjpjpjpjpjpjpjpjpjjpjpjpjppjpjpjpjpjpjpjpjpjpjpjpjppjpjpppjppjpjpjpjp
Do The Evolution
Standard Tuning
Legend
b = Bend
/ = Slide
X = Mute
h = hammer
v = vibrato
p = pull off
 
Intro
Guitar 1
E------------------------------------------------------
B------------------------------------------------------
G------------------------------------------------------
D---------------------------8------------------------8-
A----/--10--8--10--8---10----------10--8--10--8--10----
E----/--10-----10--------------0---10-----10-----------
Guitar 2
E----------------------------------------------------
B----------------------------------------------------
G----------------------------------------------------
D-----------------------8--X--------------------8--X-
A----10--8--10--8---10-----X--10--8--10--8--10-----X-
E----10-----10-------------X--10-----10------------X-
 
      "It's evolution baby...."
E-------------------------------------------
B-------------------------------------------
G-------------------------------------------
D--------8-8-8-8--7-7--6-6------------------
A--------7-7-7-7--6-6--5-5------------------
E--------8-8-8-8--7-7--6-6------------------
 
"Admire me.....admire my home....admire my song...
E----------------------------------------------------------
B----------------------------------------------------------
G----------------------------------------------------------
D------3b--0-0--0---0-3b--0-0--0--0-2b-0-------0-2---------
A----------------------------------------3-3-------3-1-----
E----------------------------------------------------------
..here's my clone..."
E------------------------------------------------------
B---------------------------(3)----3b-3b-3b------------
G----------------------------2-----2b-2b-2b------------
D-------------3b-0--2b-0-----0-----0--0--0-------------
A------1--3--------------------------------------------
E------------------------------------------------------
 
Solo
-|------------------------------------------------------------------
-|------------------------------------------------------------------
-|-10vvvvvvv-12b14vvvvvvv-14r12--p10h12p10h12b14r12p10-12p10----10--
-|-----------------------------------------------------------12-----
-|------------------------------------------------------------------
-|------------------------------------------------------------------
  wide vibrato          grad release
-|-------------------------13-----|----------------|--------------------
-|-13b15---15--13h15p13p10----13b-|----------------|--------------------
-|--------------------------------|-7b--10-7---5-7-|-----10-7---10-7vvv-
-|--------------------------------|-7b--10-7---5-7-|-10b-10-7-7---------
-|--------------------------------|----------8-----|--------------------
-|--------------------------------|----------------|--------------------
pjpjpjpjpjpjpjpjppjpjpjpjpppjpjpjpjpjpjpjpjpjpjpjpjpjpjppjpjpjpjpjpjpjpjppjpjp
MFC
Legend
^  = Bend
X  = Mute all strings
h  = Hammer
p  = Pull off
Intro
E--------------------------------------------------------
B------------3---3------3---3----------------------------
G-------0--------------------------0--5--4--0----0--0--0-
D-----5---5---------5-----------5------------------------
A--------------------------------------------------------
E--------------------------------------------------------
Guitar 2
E----------------------------------------------------^--------
B----------8-----------------------------------------^--------
G---------------------7-------7--5--7---5-h-7-p-0----^--------
D---------------------------------------------------7^--------
A-------------------------------------------------------------
E-------------------------------------------------------------
 
Pre/Verse
E-----------3---X-----------------------
B-----------3---X-----------------------
G-----------0---X----2-2-2-2^--0--------
D------3----0---X----0-0-0-0-----0------
A------3----2---X------------------0----
E------1----3---X-----------------------
E-----------3---X-----------------------
B-----------3---X-----------------------
G-----------0---X----2-2-2-2^--0--------
D------3----0---X----0-0-0-0-----0------
A------3----2---X------------------0----
E------1----3---X-----------------------
E-----------3---X-----------------------
B-----------3---X-----------------------
G-----------0---X----2-2-2-2^--0--------
D------3----0---X----0-0-0-0-----0------
A------3----2---X------------------0----
E------1----3---X-----------------------
E-----------3---3-3-3-3------
B-----------3---3-3-3-3------
G-----------0---0-0-0-0------
D------3----0---0-0-0-0------
A------3----0---0-0-0-0------
E------1----3---3-3-3-3------
 
Chorus (not accurate # of strums)
E--------------------------------------------------------------
B--------------------------------------------------------------
G---3-3-3-3-------------3-3-3-3--3-3-3-3--3-3-3-3-3-3--5-5-----
D---3-3-3-3--3-3-3-3-3--3-3-3-3--3-3-3-3--3-3-3-3-3-3--5-5-----
A---1-1-1-1--3-3-3-3-3--1-1-1-1--3-3-3-3--1-1-1-1-1-1--3-3-----
E------------1-1-1-1-1-----------1-1-1-1-----------------------
pjpjpjpjpjpjpjpjjpjppjpjpjpjpjpjpjpjppjpjpjpjpjpjpjpjpjpjpjpjpjpjpjpjpjpjpjpjp
Low Light
Intro.
       G     G     G      G            G     G      G
 
E-------------3-------------------------------3---------------
B-------------0-------------------------------0---------------
G-------------0-------------------------------0---------------
D-------------0-------------------------------0---------------
A----3-2------2----------------------3-2------2---------------
E----0-0-3-2--3----------------------0-0-3-2--3---------------
 
E-------------3-------------------------------3---------------
B-------------0-------------------------------0---------------
G-------------0-------------------------------0---------------
D-------------0-------------------------------0---------------
A----3-2------2----------------------3-2------2---------------
E----0-0-3-2--3----------------------0-0-3-2--3---------------
                  "Clouds roll by..."
E-------------3-------------------------------3---------------
B-------------0-------------------------------0---------------
G-------------0-------------------------------0---------------
D-------------0-------------------------------0---------------
A----3-2------2----------------------3-2------2---------------
E----0-0-3-2--3----------------------0-0-3-2--3---------------
 
(Variation)
 ....Reeling is what they say....
E------------------------------3-------
B------------------------------0-------
G------------------------------0-------
D------------------------------0-------
A-----------------------3-2----2-------
E---------------------------0--3-------
 
Chorus
D    Em
low light
C       G         D    Em
Side-tracked, low light
         C   C/B  Am    G        C    C/B   D
Can't see my tracks, your scent way back
 
Solo
-|-------------------------------------------------------------
-|-----------------------5-3-------------------------5-7-7-7-8-
-|-4h5p4---------4h5p4-------4-4h5p4-------4h5p4---------------
-|-------5---5-5-------5-------------5-----------5-------------
-|---------5---------------------------5-5---------5-----------
-|-------------------------------------------------------------
-|-------------------------
-|-8p7p5------5------------
-|-------7--7---7--4-5-4---
-|-----------------------5-
-|-------------------------
-|-------------------------
pjpjpjppjpjpjpjpjpjpjpjpjpjpjpjpjpjppjppjppjpjppjpjpjpjpjpjpjpjpjpjpjpjppjpjp
In Hiding
Ok.  Now that i've seen them play it, i'm sure that this is right. ;)
Standard Tuning
Legend
X   = rake strings
h   = hammer
/   = slide
>   = let ring
Intro
E------------------------------------------
B-----5-5-5-5-5-----8-8-7-7-8-7------------
G-----6-6-6-6-7-----7-7-7-7-7-7------------
D-----7-7-7-7-7-----0-0-0-0-0-0------------
A-----0-0-0-0-0----------------------------
E------------------------------------------
 
E------------------------------------------
B-----5-5-5-5-5-----8-8-7-7-8-7------------
G-----6-6-6-6-7-----7-7-7-7-7-7------------
D-----7-7-7-7-7-----0-0-0-0-0-0------------
A-----0-0-0-0-0----------------------------
E------------------------------------------
E------------------------------------------
B-----5-5-5-5-5-----8-8-7-7-8-7------------
G-----6-6-6-6-7-----7-7-7-7-7-7------------
D-----7-7-7-7-7-----0-0-0-0-0-0------------
A-----0-0-0-0-0----------------------------
E------------------------------------------
E----------------------------
B-----5-5-5-5-5-----8->>>-7--
G-----6-6-6-6-7-----7->>>-7--
D-----7-7-7-7-7-----0->>>-0--
A-----0-0-0-0-0--------------
E----------------------------
 
Verse
 "I shut and lock the front door.......no way in or out......."
E---------------------------------------------------------------
B-------7--------7-8-10--13-12----13-12-13----7-----------------
G-------7--------7-7--7--12-12----12-12-12----7-----------------
D---------------------------------------------------------------
A---------------------------------------------------------------
E---------------------------------------------------------------
 
Guitar 2 (Mike's part)
E-------------------------------------------------------------------
B----------------------------------------------------------7-7-7-7--
G--------12--11--9--7--9--11-------12--11--9--7--9--11-----7-7-7-7--
D-----------------------------10-----------------------9------------
A-------------------------------------------------------------------
E-------------------------------------------------------------------
Guitar 1 (Stone's part)
E----------------------------------------------------------7-7-7-7--
B---------------------8-7------------------------8-7-------7-7-7-7--
G-------------------------7--------------------------7--------------
D----------------------------10------------------------9------------
A-------------------------------------------------------------------
E-------------------------------------------------------------------
"A nothing sound........nothing sound....."
 
 "I swallow my words to keep from lying...."
E----------------------------------------------------------------
B------2-----2-0-------------------------------------------------
G------2-----2-0------0------------------------------------------
D------2-----2-0--------------0-------3-3-X-X-3---3-3-X-X-3-3----
A-------------------------------------3-3-X-X-3---3-3-X-X-3-3----
E------------------3-----3-2----0-----1-1-X-X-1-0-1-1-X-X-1-1-0--
 
 "I swallow my fist just to keep from biting......"
E----------------------------------------------------------------
B------2-----2-0-------------------------------------------------
G------2-----2-0------0------------------------------------------
D------2-----2-0--------------0-------3-3-X-X-3---3-3-X-X-3-3----
A-------------------------------------3-3-X-X-3---3-3-X-X-3-3----
E------------------3-----3-2----0-----1-1-X-X-1-0-1-1-X-X-1-1-0--
 "I swallow my breath and went deep i was diving..."
E----------------------------------------------------------------
B------2-----2-0-------------------------------------------------
G------2-----2-0------0------------------------------------------
D------2-----2-0--------------0-------3-3-X-X-3---3-3-X-X-3-3----
A-------------------------------------3-3-X-X-3---3-3-X-X-3-3----
E------------------3-----3-2----0-----1-1-X-X-1-0-1-1-X-X-1-1-0--
 "i surfaced when all of my being was enlightened.........now i'm....."
E---------------------------------------------------------------0-
B------2--------------------------------------------------------0-
G------2------0-------------------------------------------------0-
D------2--------------0-------3-3-X-X-3---3-3-X-X-3-3-------2-----
A-----------------------------3-3-X-X-3---3-3-X-X-3-3-------2-----
E----------3-----3-2----0-----1-1-X-X-1-0-1-1-X-X-1-1-0-----------
 
(Chorus.  Same as intro)
I'm in hiding........i'm in hiding......
E------------------------------------------
B-----5-5-5-5-5-----8-8-7-7-8-7------------
G-----6-6-6-6-7-----7-7-7-7-7-7------------
D-----7-7-7-7-7-----0-0-0-0-0-0------------
A-----0-0-0-0-0----------------------------
E------------------------------------------
 
After the 1st chorus one guitar does this while the other continues
the verse.
E------------------------------------------------
B--10-----10--8--7--8---7-h-8-/-10---10-8-7-8----
G---------------------------------------------7--
D------------------------------------------------
A------------------------------------------------
E------------------------------------------------
E----------------------------------------------------------
B--10-----10--8--7--8---7-h-8-/-10-8-----------------------
G-------------------------------------7-h-9-/-11-/-12--11--
D----------------------------------------------------------
A----------------------------------------------------------
E----------------------------------------------------------
pjpjpjpjpjpjpjjppjpjppjpppjpjpjppjppjpjpjpjpjpjpjpjpjpjpjpjpjpjpjpjpjpjpjpjpjp
Push Me, Pull Me
Standard Tuning
h = hammer
p = pull off
 
Chorus (Not the accurate number of strums)
"push me pull me.........or just just pull me out.........."
E------------------------------------------------------------------------
B-----------------------------3-3-3-3-3-3-3-3-3--------------------------
G-----------------------------2-2-2-2-2-2-2-2-2--2-2-2-2-2-2-2-2-2-2-2---
D-----4--4-4-4-4-4-4-4-4-4-4--0-0-0-0-0-0-0-0-0--2-2-2-2-2-2-2-2-2-2-2---
A-----4--4-4-4-4-4-4-4-4-4-4---------------------0-0-0-0-0-0-0-0-0-0-0---
E-----2--2-2-2-2-2-2-2-2-2-2---------------------------------------------
 
"If I behave, could you arrange a spacious hole in the ground"
E-----------------------------------------------------------------
B-----------------------------------------------------------------
G-----------------------------------------------------------------
D-------------------0-h-2--------------------0-h-2----------------
A--------0-h-2-p-0----------------0-h-2-p-0-----------------------
E-----0------------------------0----------------------------------
ppjpjpjpjpjpjpjpjpjpjjppjpjppjpjppjjpjpjppjpjppjjpppjpjpjpjpjpjpjppjpjpjpjpjp
All Those Yesterdays
 
Intro
E-----------------------------------------------
B----------------1---------------1--------------
G-------------2------------------1--------------
D----------3--------3-p-0-----2-----2-----------
A---------------------------3-------------------
E-----------------------------------------------
 
"Let them wash away........all those yesterdays"
E---------------1--------------3--------------------------------------
B------------3-----3---------5----5------------1------------1---------
G----------3---------------5-----------------2-----0--------1---------
D------------------------------------------3-----3-------2----2-------
A------------------------------------------------------3--------------
E---------------------------------------------------------------------
After 2nd Chorus (You've got time......you've got time to escape.....)
E-----------------------------------------------------
B-----------------------------------------------------
G-------------1-------------3------------3------------
D-------------1----------3--3----0-------3------------
A---------3------3--3/5--------0------3---------------
E------1---------------------------4------------------
 
Solo
-|--------------------------------------------|----------------------------
-|--------------------------------------------|----------------------------
-|-10-10-13-10-13-13b15-13-10--10-10-------10-|-10-13-10-13-13b15-13-10-13-
-|-----------------------------------10-13----|----------------------------
-|--------------------------------------------|----------------------------
-|--------------------------------------------|----------------------------
-|--------------------------------------|-------------------------------
-|--------------------------------------|-------------------------------
-|-------10-13--10-13b14r13-------10-13-|-10-10-13-10-13-13b15-13-10-13-
-|-10-13--------------------10-13-------|-------------------------------
-|--------------------------------------|-------------------------------
-|--------------------------------------|-------------------------------
-|------------------------------------------------------------
-|------------------------------------------------------------
-|-------10-13--10-13b14r13-------10-13--10-13-13/17-17-17-17-
-|-10-13--------------------10-13-----------------------------
-|------------------------------------------------------------
-|------------------------------------------------------------
-|----------------|--------------------------------------
-|----------------|--------------------------------------
-|-17/20-20-20-20-|-------10-13--10-13b14r13-------10-13-
-|----------------|-10-13--------------------10-13-------
-|----------------|--------------------------------------
-|----------------|--------------------------------------
-|--------------------------------------------|-------------------------
-|--------------------------------------------|-------------------------
-|-10-10-13-10-13-13b15-13-10-13--------10-13-|-10-13b14r13-------10-13-
-|--------------------------------10-13-------|-------------10-13-------
-|--------------------------------------------|-------------------------
-|--------------------------------------------|-------------------------
-|--------------------------------------------------------------------------
-|----------------------------------------------------/21-18----18--18--18\-
-|-10-13-13/17-17-17-17-17/20-20-20-20-20/22-22-22-22--------20-------------
-|--------------------------------------------------------------------------
-|--------------------------------------------------------------------------
-|--------------------------------------------------------------------------
pjpjpjpjpjpjpjpjpjppjpjppjpjpjpjpjppjpjpjppjpjpjpjpjpjpjpjpjpjpjpjpjpjpjpjpjjp
Hummus
Standard Tuning
Legend
/ = slide
p = pull off
h = hammer
X = Stop
There are 2 guitars in this song but it's possible to get by with one.
There are also many different ways to play this song.  If you have two
people on guitar then one would play the B notes, the other would be playing
the D notes. Or you can do it all yourself.  This probably isn't exact
right but it's close.
E---------------------------------------------------------------------
B----10--12---12-/-13----12---10-/-9--12----5--0--1--0--X--5--0--1--0-
G---------------------------------------------------------------------
D----10--12---12-/-13----12---10-/-9--12----5--0--1--0--X--5--0--1--0-
A---------------------------------------------------------------------
E---------------------------------------------------------------------
E---------------------------------------------------------------------
B----10--12---12-/-13----12---10-/-9--12----5--0--1--0--X--5--0--1--0-
G---------------------------------------------------------------------
D----10--12---12-/-13----12---10-/-9--12----5--0--1--0--X--5--0--1--0-
A---------------------------------------------------------------------
E---------------------------------------------------------------------
E----------------------------------------------------------------------
B----10--12---12-/-13----12---10-/-13--12----5--0--1--0--X--5--0--1--0-
G----------------------------------------------------------------------
D----10--12---12-/-13----12---10-/-13--12----5--0--1--0--X--5--0--1--0-
A----------------------------------------------------------------------
E----------------------------------------------------------------------
E----------------------------------------------------------------------
B----10--12---12-/-13----12---10-/-13--12----5--0--1--0--X--5--0--1--0-
G----------------------------------------------------------------------
D----10--12---12-/-13----12---10-/-13--12----5--0--1--0--X--5--0--1--0-
A----------------------------------------------------------------------
E----------------------------------------------------------------------
 
Guitar 1
E------------------------------------------------------------------------
B------------------------------------------------------------------------
G---------------------------------------5-4-----5--7-(7)-/-8---7---5---0-
D-------------------5--3-----3-h-5-/-6-----------------------------------
A---3----3-h-5-/-6-------------------------------------------------------
E------------------------------------------------------------------------
Guitar 2
E---------------------------------------------------------------------------
B-----------------------------------------------13-12--13--15-/-16--13-12-8-
G-----------------------12--10----10-h-12-/-13------------------------------
D---10----10-h-12-/-13------------------------------------------------------
A---------------------------------------------------------------------------
E---------------------------------------------------------------------------
pjpjpjpjpjpjpjpjpjpjpjpjpjppjpjpjppjpjpjpjpjppjpjpjpjpjpjpjpjpjpjpjjppjpjpjpjpj
 
pjpjpjpjpjpjpjpjpjpjpjpjpjpjpjp
pj   Non-Album Originals     pj
pjpjpjpjpjpjpjpjpjpjpjpjpjpjpjp
pjpjpjpjpjpjpjpjpjpjpjpjpjpjpjpjpjpjpjpjpjpjpjpjpjpjpjpjpjpjpjpjpjpjpjpjpjpjpjp
 
Alone
Intro: 
------------------------------------------------------------------------------
------------------------------------------------------------------------------
------------------------------------------------------------------------------
---2-2-2-2-2------------------------------------------------------------------
---2-2-2-2-2------------------------------------------------------------------
---0-0-0-0-0------------------------------------------------------------------
Intro A: 
---7-7-7-7-7-7----------------------------------------------------------------
---8-7-8-7-7-8----------------------------------------------------------------
---7-7-7-7-7-7----------------------------------------------------------------
---9-9-9-9-9-9----------------------------------------------------------------
---7-7-7-7-7-7----------------------------------------------------------------
------------------------------------------------------------------------------
Main Riff A: 
------------------------------------------------------------------------------
------------------------------------------------------------------------------
-------------------------------7-9--------------------------------------------
------------5-7------7-5---7-9------------------------------------------------
--------7-5------7-5-----7----------------------------------------------------
--12\0------------------------------------------------------------------------
Main Riff B: 
------------------------------------------------------------------------------
------------------------------------------------------------------------------
------------------------------------------------------------------------------
------------5-7------7-7-7-7-5------------------------------------------------
--------7-5------7-5-----------7-5--------------------------------------------
-----0------------------------------------------------------------------------
Bridge:
------------------------------------------------------------------------------
------------------------------------------------------------------------------
--------9-9---7-9-----7-9---9-12-11-------------------------------------------
--------9-9---7-9-----7-9---9-12-11-------------------------------------------
--------7-7---5-7-----5-7---7-10--9-------------------------------------------
---12\------0-----0-0-----0---------------------------------------------------
Song Layout:
intro: 1x
Intro A: 4x
Main Riff A: 3x
Main Riff B: 1x
Main Riff A: 7x
Main Riff B: 1x
Intro A: 4x
Main Riff A: 7x
Main Riff B: 1x
Bridge: 4x
Bridge with guitar solo: 8x (not sure about the rythm at this part,
                            but it is using the same chords that are
                            used in the Bridge rythm fig.)   
Intro A: 4x

PjPjPjPjPjPjPjPjPjPjPjPjPjPjPjPjPjPjPjPjPjPjPjPjPjPjPjPjPjPjPjPjPjPjPjPjPjPjPj
Angel
This is pretty much just a guideline, as well as a best guess.  Make sure
to keep the "jangle" sound to it.  There are varaitions throughout the song,
but this is the basic idea:
Verse:
--0---------------------------------------------------------------------------
--0-(4)-5--5--5---5-----------------------------------------------------------
--2--/--4--4--4---4-----------------------------------------------------------
--2--/--4--4--4---4-(5)-------------------------------------------------------
--0-------------0-------------------------------------------------------------
----------------5-------------------------------------------------------------
Chorus:
--0---------------------------------------------------------------------------
--3--4--5--5--5---------------------------------------------------------------
--2--4--4--4--4---------------------------------------------------------------
--0--4--4--4--4---------------------------------------------------------------
------------------------------------------------------------------------------
------------------------------------------------------------------------------
Outro:
--0-----0---------------------------------------------------------------------
--5--4--5--4------------------------------------------------------------------
--4--4--4--4------------------------------------------------------------------
--6--4--6--4------------------------------------------------------------------
------------------------------------------------------------------------------
------------------------------------------------------------------------------
PjPjPjPjPjPjPjPjPjPjPjPjPjPjPjPjPjPjPjPjPjPjPjPjPjPjPjPjPjPjPjPjPjPjPjPjPjPjPj
Breath 
 
-0-0-0-----------0-ring-----------------------0----------------------------|--
-0-0-0-----------0--------------------------3------------------------------|--
-0-0-0---9--------------------------------2---------------------9----------|--
-0-0-0---9-------2----------------------0-----------------------9----------|--
-0-0-0---7slide--2------------0--2--3--------------5-----0-2-3--7-slide----|--
-----------------0--------4--------------------------4---------------------|--
                                                                               
                                                                               
Here are the "Hendrix-Style" Octaves that Mike plays at the begining (and
end).  Get the feel of sliding the octaves...don't just play them like 
single notes.  
 
-----------------------------|---------------------------------------------|--
-----------------------------|---------------------------------------------|--
-13---11---13----13-13-13-14-|-14sl-13--14--14sl-13--14sl-16--13-----------|--
-----------------------------|------------------------------------14sl-----|--
-11---9----11----11-11-11-12-|-12sl-11--12--12sl-11--12sl-14--11-----------|--
-----------------------------|------------------------------------12sl-----|--
                                                                               
                                                                               
----------------------------|----------------------------------------------|--
----------------------------|----------------------------------------------|--
-13--13sl-11sl-13--11-------|----------------------------------------------|--
-----------------------12---|----------------------------------------------|--
-11--11sl-9-sl-11--9--------|---5----0--2--3-------------------------------|--
-----------------------10---|-----4----------------------------------------|--
                                                                              
Verse:
 
------------0-----------------5--------------------------------------------|--
---------0----ring--------3------ring--------------------------------------|--
----------------------2----------------------------------------------------|--
---------------------------------------------------------------------------|--
----2----------------------------------------------------------------------|--
----0----------------------------------------------------------------------|--
                                                                               
 
Bridge: 
--------------------------|-------------------------|----------------------|--
--------------------------|-------------------------|----------------------|--
--6--6--6--6--6--6--6--6--|-6-6--8-8--9-9-9-9-9-9-9-|--13----14------------|--
--6--6--6--6--6--6--6--6--|-6-6--8-8--9-9-9-9-9-9-9-|----------------------|--
--4--4--4--4--4--4--4--4--|-4-4--6-6--7-7-7-7-7-7-7-|--11----12------------|--
--------------------------|-------------------------|----------------------|--
Here it comes,  There is goes 
                                                                            
 
                                                                               
----------------------------|----------------------------------e-----------|--
----------------------------|---------------------------------d------------|--
----------------------------|-----------------------------9--i-------------|--
--6-6-6-6-6-6-6-6-6-6-6-6---|---7-7-7-7-7-7-7-7-7-7-7-7---9-l--------------|--
--6-6-6-6-6-6-6-6-6-6-6-6---|---7-7-7-7-7-7-7-7-7-7-7-7---7s---------------|--
--4-4-4-4-4-4-4-4-4-4-4-4---|---5-5-5-5-5-5-5-5-5-5-5-5--------------------|--
If I knew where it was, I would take you there 
                                                                            
 
PjPjPjPjPjPjPjPjPjPjPjPjPjPjPjPjPjPjPjPjPjPjPjPjPjPjPjPjPjPjPjPjPjPjPjPjPjPjPj
Dirty Frank
Intro/Chorus/Main Riff:
 E7           C7
-7-------------------
-9-\-----------------
-7-------------------
-9-\-----------------
-7------7-6-0-3h4p0--
---------------------
Verse:
 E7           C7
-7------------3------
-9-\----------5--\---
-7------------3------
-9-\----------5--\---
-7------------3------
---------------------
During the whole song there is a lot of ad-libbing,
so just play around with these basic shapes and throw
in some bends and other misc. stuff to keep it 
interesting.
PjPjPjPjPjPjPjPjPjPjPjPjPjPjPjPjPjPjPjPjPjPjPjPjPjPjPjPjPjPjPjPjPjPjPjPjPjPjPj
Footsteps 
Intro           Main riff----------------------------|
                       |-- let ring                                     etc...
--------------|----------------------|----------------|-----------------------
--------------|----------------------|----------------|-----------------------
--------------|--------0----(0)------|-------(0)------|-------0----(0)--------
--------------|-------------(0)------|-----------(0)--|------------(0)--------
--------------|----------------------|----------------|-----------------------
--(3)-(3)-(3)-|---1h3-----3-----1----|--1-------------|--1h3-----3-----1------
                     -----       -------                    -----       ----
Main riff 4x until verse w/slight variations
Play main riff 7 times over verse until
---------------|-----0--0-0-0-x-x-|-------------------------------------------
---------------|-----0--0-0-0-x-x-|-------------------------------------------
-------0-------|-----0--0-0-0-x-x-|-------------------------------------------
--------(0)----|-----0--0-0-0-x-x-|-------------------------------------------
---------------|-----0--0-0-0-x-x-|-------------------------------------------
--1h3------3-1-|--1---------------|-------------------------------------------
              ----
Bridge
  C  C9 C9   Dmajsus4(+9)?      C   C C     Dmajsus4(+9)       C  C9 C9
--0--0--0--|--0-------0-0-0--|--0---0-0--|--0--------0-0-0--|--0--0--0--------
--1--3--3/-|--3---3-3-3-3-3\-|--1---1-1--|--3--3-3-3-3-3-3--|--1--3--3/-------
--0--0--0--|--0---0-0-0-0-0--|--0---0-0--|--0--0-0-0-0-0-0--|--0--0--0--------
--2--2--2/-|--4---4-4-4-4-4\-|--2---2-2--|--4--4-4-4-4-4-4--|--2--2--2/-------
--3--3--3/-|--5-------5-5-5\-|--3---3-3--|--5--------5-5-5--|--3--3--3/-------
-----------|-----------------|-----------|------------------|-----------------
              Ohhh......  I   did              what I had to  do......
 Dmajsus4(+9)        E5             C           
                           (**)                 (main riff again)
--0-------0-0-----|--0---0--0-0--|--0-----------|-----------------------------
--3--3-3--3-3-----|--0---0--0-0--|--1-----------|-----------------------------
--0--0-0--0-0-----|--x---x--x-x--|--0-----(0)---|------0----------------------
--4--4-4--4-4-4-4-|--2---2--2-2--|--2-----------|-----------------------------
--5-------5-5-5-5-|--2---2-------|--3-----------|-----------------------------
------------------|--0---0-------|---------(3)--|--1h3----3-1-----------------
    if there was a  reason.....       It was you.......       (etc.)
Main riff 4x w/slight variations
Play main riff 3 times until above variation
Play entire Bridge with variation above at (**)
  C     C   
--0--|--0---0-0-0-0-0--|------------------------------------------------------
--1--|--1---1-1-1-1-1--|------------------------------------------------------
--0--|--0---0-0-0-0-0--|  then play Bridge again with above variation --------
--2--|--2---2-2-2-2-2--|------------------------------------------------------
--3--|--3---3-3-3-3-3--|------------------------------------------------------
-----|-----------------|------------------------------------------------------
Then play this 4x:
Chorus
  E5       E5/F#                    G          A 
   --- ---- --- ---- --- --- -let ring- --- ---- ---  (***) ---- 
--0--0-0-0----|---------0--0-0-0-|--3---3-3-3--0-|--0--0--0-0-0-0-------------
--0--0-0-0----|---------0--0-0-0-|--0---0-0-0--2-|--2--2--2-2-2-2-------------
--x--x-x-x----|---------x--x-x-x-|--0---0-0-0--2-|--2--2--2-2-2-2-------------
--2--2-2-2----|-----(2)-2--2-2-2-|--0---0-0-0--2-|--2--2--2-2-2-2-------------
--2--2-2-2----|-----(2)-2--2-2-2-|--2---2-2-2--0-|--0--0--0-0-0-0-------------
--0--0-0-0--2-|---2--------------|--3---3-3-3----|----------------------------
             -----
  you.....                          Footsteps  in           the hall...(etc)
On the 4th time, hold the A chord at (***)
Play the main riff 4x with variation on 4th time.
Play Bridge 2x into Chorus
Play Chorus 4x with variation on 4th time.
Then play main riff 4x with variation 1st time as Outro:
--------------------
--------------------
--------------------  Just change the G to a D the first time only.
-------0------------
--------------------
--1h3-----3---1-----
               ----

PjPjPjPjPjPjPjPjPjPjPjPjPjPjPjPjPjPjPjPjPjPjPjPjPjPjPjPjPjPjPjPjPjPjPjPjPjPjPj
Habit
Intro:
A   D   A   A#5
Verse: Same as Intro
Interlude:
------------------------------------------------------------------------------
------------------------------------------------------------------------------
----6-------6-------6---------------------------------------------------------
8------8-------8--------8-----------------------------------------------------
6-----------------------------------------------------------------------------
------------------------------------------------------------------------------
Chorus:
------------------------------------------------------------------------------
------------------------------------------------------------------------------
------------------------------------------------------------------------------
7---6----4--------------------------------------------------------------------
5---4-- -2--------------------------------------------------------------------
--------------6--8--6--8--8---------------------------------------------------

PjPjPjPjPjPjPjPjPjPjPjPjPjPjPjPjPjPjPjPjPjPjPjPjPjPjPjPjPjPjPjPjPjPjPjPjPjPjPj
Hard to Imagine
        (A)                                                 (B)
 A     A       A        A                    D  B  A   C        
------------------------------------------------------------------------------
-2----------------------------------------------------------------------------
-2-----7-7-h-9-7-7--------------------------------------7-7-7-7-7-h-9---------
-2------------------7-7-h-9-7-7--7-h-9-7--------------------------------------
------------------------------------------------------------------------------
------------------------------------------------------------------------------
     (B)
             
-----------------|------------------------------------------------------------
-----------------|------------------------------------------------------------
-----------------|------------------------------------------------------------
---7-h-9-h-7-7---|------------------------------------------------------------
-----------------|------------------------------------------------------------
-----------------|------------------------------------------------------------
Verse:
A        A      A           A
Paint a picture Isnt all in gray
A        A        A        A
light your pillow lay back watch the flames
A        A        A      A           
I'll tell a story but no one listens that long
A        A           A        A
it's hard to imagine it's hard to imagine
CHORUS (B)
D B(?) A C
D B(?) A C
CHORUS (B)
D B(?) A C
D B(?) A C
D B(?) A C
INTERLUDE
G  A  G  A
G                     A
things were different then
                 G
All is different Now
           A                G
I tried to explain    Somehow
G                     A
things were different then
                 G
all is different now 
           A                G
i tried to explain    somehow

PjPjPjPjPjPjPjPjPjPjPjPjPjPjPjPjPjPjPjPjPjPjPjPjPjPjPjPjPjPjPjPjPjPjPjPjPjPjPj
I Got Shit
Intro, Verse, and Post-Chorus:
D Bb D Bb D C
PreChorus:
Bm F# G
Chorus:
D A Cadd9 G

PjPjPjPjPjPjPjPjPjPjPjPjPjPjPjPjPjPjPjPjPjPjPjPjPjPjPjPjPjPjPjPjPjPjPjPjPjPjPj
I Got Shit (from Aussie Dynamos)
------------------------------------------------------------------------------
------------------------------------------------------------------------------
--7-7-7-7-7-7-7---8-8-8-8-8-8-8---7-7-7-7-7-7-7---5-5-5-5-5-5-----------------
--7-7-7-7-7-7-7---7-7-7-7-7-7-7---7-7-7-7-7-7-7---7-7-7-7-7-7-----------------
------------------------------------------------------------------------------
------------------------------------------------------------------------------
Fills:
-----------10h12------10h12p10-----10h12---14p12-10---------------------------
------------------------------------------------------------------------------
------------------------------------------------------------------------------
------------------------------------------------------------------------------
------------------------------------------------------------------------------
------------------------------------------------------------------------------
------------------------------------------------------------------------------
------------------------------------------------------------------------------
--2---------------------------------------------------------------------------
------4--2--0-----------------------------------------------------------------
------------------------------------------------------------------------------
------------------------------------------------------------------------------
--14-14-14-14-14---15-15-15-15-15---14-14-14-14-14---12-12-12-12-12-----------
------------------------------------------------------------------------------
------------------------------------------------------------------------------
------------------------------------------------------------------------------
------------------------------------------------------------------------------
------------------------------------------------------------------------------
 
PjPjPjPjPjPjPjPjPjPjPjPjPjPjPjPjPjPjPjPjPjPjPjPjPjPjPjPjPjPjPjPjPjPjPjPjPjPjPj
Let Me Sleep (It's Christmas Time)
Riff I:
---5--3-h-5-p-3----------------------------------|
------------------3---5^hf-3----------3----------|
--------------------------------------0----------|
-------------------------------------------------|
-------------------------------------------------|
-------------------------------------------------|
Cold wind blows on the soles of my feet
Heaven knows nothin' of me
I'm lost.....without hope (nowhere to go?)
For the "I'm lost" part:
Riff II:
---5--3-h-5-p-3----------------------------------|----------------------------
------------------3---5^hf-3-------3----3--------|----------------------------
-------------------------------4------4----------|----------------------------
-------------------------------------------------|----------------------------
-------------------------------------------------|----------------------------
-------------------------------------------------|----------------------------
After "without hope":
Riff III:
--10---8-p-7-------7-------7-------7-----------7-------------------------|----
-----------------------------------------------8-------------------------|----
---------------7-------7-------7-------7---7-------7------(3times)-------|----
---------------------------------------0---------------------------------|----
-------------------------------------------------------------------------|----
-------------------------------------------------------------------------|----
Fourth time:
Riff IV:
---5--3-h-5-p-3---------------|---------3---0--------------3---2---------|----
------------------3---3---3---|-----------------1---3--3-----------3-----|----
----------------------2---2---|-----0---------------2--2---------------2-|----
----------------------0---0---|-----2---------------0--0-----------------|----
------------------------------|-----3------------------------------------|----
------------------------------|------------------------------------------|----
                            oh when I   was a       kid         oh   how
--------3---0--------------3---2---------|-------3---0-------3/----------|----
----------------1---3--3-----------3-----|---------------1---3/----3-----|----
----0---------------2--2---------------2-|---0---------------------0-----|----
----2---------------0--0-----------------|---2---------------------------|----
----3------------------------------------|---3---------------------------|----
-----------------------------------------|-------------------------------|----
  magic it seemed               oh please   let me sleep it's x-mas time
After the second chorus:
Riff V:
-----------------------------------|------------------------------------------
---6---6-p-5-p-3---3---3---2---3---|------------------------------------------
-------------------0---0---2---4---|------------------------------------------
-----------------------------------|------------------------------------------
-----------------------------------|------------------------------------------
-----------------------------------|------------------------------------------

PjPjPjPjPjPjPjPjPjPjPjPjPjPjPjPjPjPjPjPjPjPjPjPjPjPjPjPjPjPjPjPjPjPjPjPjPjPjPj
Long Road
Verse 1 (strum D several times)
I cannot say
Without you something's missing...
I cannot say
Pre Chorus
G
Oh, the hands of dawn in his heart
                            D
And their face is falling down
Down, down, down...
Chorus
Em                      A
I have wished for so long...
D
Now I wish for you again
Verse 2 (D several times again)
Will I walk the long road?
I cannot say 
There's no need to say goodbye
Pre Chorus 
G
Oh, the pressure's building
                         D
All the memories going round
Round, round, round...
Chorus
Em                      A
I have wished for so long...
                    D
Now I wish for you again
Bridge
C
And the wind keeps blowin'
G                            D
And the sky keeps turning grey
C                 G
And the sun is set 
    D
The sun won't never rise again
Chorus (X2)
Em                      A
I have wished for so long...
                    D
Now I wish for you again
Em                      A
I have wished for so long
                    D
Now I wish for you today
D
Will I walk the long road? (3x)
PjPjPjPjPjPjPjPjPjPjPjPjPjPjPjPjPjPjPjPjPjPjPjPjPjPjPjPjPjPjPjPjPjPjPjPjPjPjPj
Lukin
Verse:
------------------------------------------------------------------------------
------------------------------------------------------------------------------ 
---9-9-9-9-9--\---7----9-9-9-9-9-\---5----------------------------------------
---9-9-9-9-9--\---7----9-9-9-9-9-\---5----------------------------------------
---7-7-7-7-7--\---5----7-7-7-7-7-\---3----------------------------------------
------------------------------------------------------------------------------
Chorus:
------------------------------------------------------------------------------
------------------------------------------------------------------------------
---9-9-9-9-9-9---7-7-7-7-7--5-5-5-5-5--x-5-5-5---5-5-5------------------------
---9-9-9-9-9-9---7-7-7-7-7--5-5-5-5-5--x-5-5-5-x-5-5-5------------------------
---7-7-7-7-7-7---5-5-5-5-5--3-3-3-3-3--x-3-3-3-x-3-3-3------------------------
------------------------------------------------------------------------------
Fill:
------------------------------------------15~-------15~------15~--------------
---12~--12~--12~--12~-------12--------12------12------------------------------
-------------------------------  2nd -----------------------------------------
------------------------------- verse ----------------------------------------
------------------------------------------------------------------------------
------------------------------------------------------------------------------

PjPjPjPjPjPjPjPjPjPjPjPjPjPjPjPjPjPjPjPjPjPjPjPjPjPjPjPjPjPjPjPjPjPjPjPjPjPjPj
Outta My Mind
The whole song is improve on the following pattern:
-----------------|------------------------------------------------------------
-----------------|------------------------------------------------------------
-----------------|------------------------------------------------------------
--6-6-6-6-4-4-4-4|------------------------------------------------------------
-4---4---2---2---|------------------------------------------------------------
-----------------|------------------------------------------------------------

PjPjPjPjPjPjPjPjPjPjPjPjPjPjPjPjPjPjPjPjPjPjPjPjPjPjPjPjPjPjPjPjPjPjPjPjPjPjPj
State Of Love And Trust 
---------------------------------------------------------------------------|--
--10----10---r---r---r----5--5--5------------------------------------------|--
--10----10---a---a---a----5--5--5------------------------------------------|--
--10----10---k---k---k----7--7--7---7--7-----------------------------------|--
--8-----8----e---e---e----7--7--7---7--7-----------------------------------|--
--------------------------5--5--5---5--5-----------------------------------|--
Start out in F - get the rake rhythm down - then move to A
--------------------------------------|------------------------------------|--
--------------------------------------|------------------------------------|--
------------10----10--------7/\-7-5---|-------10----10-------7/\5--7--5----|--
--------10-----10----10-10----------7-|----10----10----10-10---------------|--
--8--8--------------------------------|--8---------------------------------|--
--------------------------------------|------------------------------------|--
      State of love and trust is a 
This is where the lyrics start.  Mike plays this part while Stone sits 
back and jams the F to A pattern.  Don't take this part of the tab to 
heart.  This is where you should do some improvisation and a little 
jamming of your own.  If you listen to this live, you'll get the picture. 
----------------------------|----------------------------------------------|--
--10-r-10-r-10-----5-5------|--10--10-r--r--r--5--5--5--5-5---------r-r-r--|--
--10-a-10-a-10-----5-5------|--10--10-a--a--a--5--5--5--5-5---5-5-5-a-a-a--|--
--10-k-10-k-10-----7-7--7---|--10--10-k--k--k--7--7--7--7-7---5-5-5-k-k-k--|--
--8--e-8--e-8------7-7--7---|--8---8--e--e--e--7--7--7--7-7---3-3-3-e-e-e--|--
-------------------5-5--5---|------------------5--5--5--5-5----------------|--
 Smell that on my hands-ands...  And I listen for the 
Here is the chord pattern for the chorus:  F A C G A B C D
---------------------------------------------------------------------------|--
-----------------r-r-r-----------------------------------------------------|--
-------------2-2-a-a-a--4-4-4-4-4--5-5-5-5-5--7-7-7-7-7--------------------|--
--5-5-5-5-5--2-2-k-k-k--4-4-4-4-4--5-5-5-5-5--7-7-7-7-7--------------------|--
--5-5-5-5-5--0-0-e-e-e--2-2-2-2-2--3-3-3-3-3--5-5-5-5-5--------------------|--
--3-3-3-3-3----------------------------------------------------------------|--
voice inside my head - nothing - I'll do this one myself 
Then there is a small variagion to the chorus.  The following tab will 
show the change in the chords directly above.  The second variation of 
the chorus is as follows:  F A C G A G F D
---------------------------------------------------------------------------|--
-----------------r-r-r-----------------------------------------------------|--
-------------2-2-a-a-a--------------------------7-7-7-7--------------------|--
--5-5-5-5-5--2-2-k-k-k--5-5-5-5-5-5-5--3-3-3-3--7-7-7-7--------------------|--
--5-5-5-5-5--0-0-e-e-e--5-5-5-5-5-5-5--3-3-3-3--5-5-5-5--------------------|--
--3-3-3-3-3-------------3-3-3-3-3-3-3--1-1-1-1-----------------------------|--
 from both sides of ....  
There is the variation of the chorus.  Simple. 
Myself!  Myself! 
YEAH!  YEAH! 
--------------------------------------------|------------------------------|--
--------------------------------------------|------------------------------|--
--12h-14-14-14-14-12------------------------|------------------------------|--
---------------------14-14--14--14-12-------|------------------------------|--
--------------------------------------15-12-|-15-15-15-14-15-14------------|--
--------------------------------------------|------------------------------|--
                                              This part is the variation
                                              that Mike throws in.  

PjPjPjPjPjPjPjPjPjPjPjPjPjPjPjPjPjPjPjPjPjPjPjPjPjPjPjPjPjPjPjPjPjPjPjPjPjPjPj
Wash
Verse:
 Gmin
-3--3-3-3-
-3--3-3-3-
-3--3-3-3-
-5--5-3-5-  etc.
-5--------
-3--------
Chorus:
 Bb               Gmin
-6-------------6--3-
-6-------------6--3-
-6-6-6---------6--3-
-7-7-7-7-7-7-7-7--3-  etc...
-8-8-8-8-8-8-8-8--5-
-8-8-8-8-8-8-8-8--5-
-6-6-6-6-6-6-6-6--3-
                  
                  Wash my love...
PjPjPjPjPjPjPjPjPjPjPjPjPjPjPjPjPjPjPjPjPjPjPjPjPjPjPjPjPjPjPjPjPjPjPjPjPjPjPj
Yellow Ledbetter
Intro:
----------|-----------|-9p7-----|-7-9-|-7\5-|-5-----|-5h7-------|-------------
----------|-9---------|-----7---|-7-7-|-7\5-|-5-----|-----5h7---|-------------
--------9-|-9h11------|-------8-|-8-8-|-8\6-|-6h7p6-|-----------|-------------
---9----9-|-9---h11---|---------|-----|-----|-------|-----------|-------------
---9h11---|-----------|---------|-----|-----|-------|-----------|-------------
-0--------|---------7-|---------|-----|-----|-------|---------0-|-------------
-12/14-----------|------------------------------------------------------------
-12/14-12-14-----|------------------------------------------------------------
-------------13\-|------------------------------------------------------------
-----------------|------------------------------------------------------------
-----------------|------------------------------------------------------------
-----------------|------------------------------------------------------------
----------|-9-9------|-----9-9-7--9-9-|-7\5-|-----5-|-------5---|-12/-|-------
----------|-9-9------|---7-7-7-7--7-7-|-7\5-|-------|-5h7p5-5---|-12/-|-------
--------9-|-9-9-11---|-8--------------|-8\6-|-6h7---|-----------|-----|-------
---9----9-|----------|----------------|-----|-------|-----------|-----|-------
---9h11---|----------|----------------|-----|-------|-----------|-----|-------
-0--------|--------7-|----------------|-----|-------|---------0-|-----|-------
The chords leading up to and during the solo are:  E B A E

Solo:
---------|------------------------|-------------------------------------------
---------|-------)--)--)(---------|-------------------------------------------
------9~-|-9-11-11-11-11-11p9h11~-|-------------------------------------------
-9h11----|------------------------|-------------------------------------------
---------|------------------------|-------------------------------------------
---------|------------------------|-------------------------------------------
--------------------------------------------|--)-----)(---------|-------------
--------------------------------------------|-12-12-12-12-----)-|-------------
--9-----------------------------------------|-------------13-11-|-------------
---11-9-----------------------------------*-|-------------------|-------------
--------11-9-7-9----7---7-9-7----7---7---10-|-------------------|-------------
----------------------9------------9---9----|-------------------|-------------
                      fast
-------------------|---------|-------------------|----------------------------
-------------------|---------|-------12----12-14-|----------------------------
-11-9-11-11~~~~~~~-|-11p9----|-13-------13-------|----------------------------
-------------------|------11-|-------------------|----------------------------
-------------------|---------|-------------------|----------------------------
-------------------|---------|-------------------|----------------------------
                    )(
-------------------14-14-12----12-14-12---12\-|--------------|----------------
-14p12-14p12-14p12----------14----------------|-------14-14~-|----------------
----------------------------------------------|-11h13--------|----------------
----------------------------------------------|--------------|----------------
----------------------------------------------|--------------|----------------
----------------------------------------------|--------------|----------------
                     fast
-------------------------------|----------------*-|-------------|-------------
-14-12-------------------------|----------------9-|-------------|-------------
-------13-11-13-11-13-11----9~-|-11-9----9-11-9---|-9----9-11-9-|-------------
-------------------------11----|------11----------|---11--------|-------------
-------------------------------|------------------|-------------|-------------
-------------------------------|------------------|-------------|-------------
------7---9-|-7h9p7h9p7h9p7h9p7h9p7h9p7h9p7h9\-|------------------------------
-7/9----9---|----------------------------------|------------------------------
------------|----------------------------------|------------------------------
------------|----------------------------------|------------------------------
------------|----------------------------------|------------------------------
------------|----------------------------------|------------------------------
The chords after the solo are still: E B A E
Until it changes to, ("I don't wanna (stay)?...." part), play this:  
E B A
E B A(base lead during A: Ab Gb)
E B A
E B A
Eb E B
Eb E A
Eb E B
Eb E A(To outro)
Outro:
                                                                 ? ? ? ?
-------|----------|-----------|-9p7-----|-9-9-|-7\5-|-5-----|-5-5-5-5---|-----
-12/19-|----------|-9---------|-----7---|-7-7-|-7\5-|-5-----|-5-5-5-5---|-----
-------|--------9-|-9h11------|-------8-|-8-8-|-8\6-|-6h7p6-|-6-6-6-6---|-----
-------|---9----9-|-9---h11---|---------|-----|-----|-------|-7-7-7-7---|-----
-------|---9h11---|-----------|---------|-----|-----|-------|-7-7-7-7---|-----
-------|-0--------|---------7-|---------|-----|-----|-------|-5-5-5-5-0-|-----
-12/14-----------|------------------------------------------------------------
-12/14-12-14-----|------------------------------------------------------------
-------------13\-|------------------------------------------------------------
-----------------|------------------------------------------------------------
-----------------|------------------------------------------------------------
-----------------|------------------------------------------------------------
----------|-----------|-9p7-------12/19-|-----|--7p5------|-------|-----------
----------|-9---------|-7----5/7--------|-----|--5----3/5-|-------|-----------
--------9-|-9h11------|-----------------|-----|-----------|-------|-----------
---9----9-|-9---h11---|-----------------|-----|-----------|-------|-----------
---9h11---|-----------|-----------------|-----|-----------|-------|-----------
-0--------|---------7-|-----------------|-7\5-|-----------|-7\--0-|-----------
      Harmonics         
                   ?
----12--------17----17-|------------------------------------------------------
-12----12--------15----|------------------------------------------------------
-----------------------|------------------------------------------------------
-----------------------|------------------------------------------------------
-----------------------|------------------------------------------------------
-----------------------|------------------------------------------------------
                                                         Harmonics
----------|-----------|-9-9-7---9-9---7p5--5h7p5-------------12---|-----------
----------|-9---------|-7-7-7---7-7---5-----------5-5-----12------|-----------
--------9-|-9h11------|---------------------------6-7-------------|-----------
---9----9-|-9---h11---|---------------------------7-7-------------|-----------
---9h11---|-----------|-------------------------------------------|-----------
-0--------|---------0-|-------------------------------0-----------|-----------
 
PjPjPjPjPjPjPjPjPjPjPjPjPjPjPjPjPjPjPjPjPjPjPjPjPjPjPjPjPjPjPjPjPjPjPjPjPjPjPj
PjPjPjPjPjPjPjPjPjPjPjPjPjPjPjPjPjPjPjPjPj
Pj                                      Pj
Pj          Non-Album Covers            Pj
Pj                                      Pj 
PjPjPjPjPjPjPjPjPjPjPjPjPjPjPjPjPjPjPjPjPj
PjPjPjPjPjPjPjPjPjPjPjPjPjPjPjPjPjPjPjPjPjPjPjPjPjPjPjPjPjPjPjPjPjPjPjPjPjPjPj
Beast Of Burden
The Rolling Stones
 
E             B/D# C#m         A
I'll never be your beast of burden
E          B/D#  C#m        A
My back is broad but it's a hurting
E     B/D#        C#m         A
All I want is for you to make love to me
E             B/D# C#m         A
I'll never be your beast of burden
E               B/D#   C#m         A
I've walked for miles, my feet are hurting
E     B/D#        C#m         A            B/D#  C#m
All I want is for you to make love to me
 
A                     E/G#              A
Am I hard enough Am I rough enough Am I rich enough
    E/G#          A  B
I'm not too blind to see
 
E             B/D# C#m      A
I'll never be your beast of burden
E            B/D#  C#m        A
So let's go home and draw the curtains
E             E/D#
Music on the radio
C#m           A                       E   B/D#   C#m
Come on baby, make sweet love to me
 
A                     E/G#              A
Am I hard enough Am I rough enough Am I rich enough
    E/G#          A  B                       E
I'm not too blind to see...oh little sister
   E/D#    C#m         A
Pretty, pretty, pretty girl
E  B/D#  C#m | A | E  B/D#  C#m | C#m  A | E  B/D#  C#m |
A             E                               A
You're such a pretty, pretty, pretty, pretty, pretty, pretty girl
E                             A
Pretty, pretty such a pretty, pretty, pretty girl
E             A
Come on, baby please, please, please
 
A            E
I'll tell ya
               B/D# C#m   A
You can put me out on the street
E                        A
Put me out with no shoes on my feet
    E           B/D#  C#m                        A   E    B/D# C#m
But put me out, put me out, put me out... out of misery
E          B/D#     C#          A
All your sickness I can suck it up
E              E/D#
Throw it all at me
C#m            A
I can shrug it off
   E               B/D#  C#m          A
There's one thing, baby, I don't understand
E        E/G#         A
You keep telling me I ain't your kind of man
        E
Ain't I rough enough
A       E       B/D#  C#m
Ain't I tough enough
A       E
Ain't I rich enough
     B/D#  C#m
In love enough
     A           E  B/D#  C#m
Ooh  Ooh  please
repeat first verse
end:
I don't need no beast of burden
I need no fussing, I need no nursing
Never, never, never, never, never, never, never be...
 
PjPjPjPjPjPjPjPjPjPjPjPjPjPjPjPjPjPjPjPjPjPjPjPjPjPjPjPjPjPjPjPjPjPjPjPjPjPjPj
Crazy Mary
Victoria Williams
B
She lived on a curve in the road
G
In an old tar paper shack
B                                    G
On the south side of the town on the wrong side of the tracks
B
Sometimes on the way in to town
G                         G
We say 'Mama, can we stop and give her a ride?'
B                 A             G
Sometimes we did, but her hands flew from her side
G           A        B        G    B    G    B
Wild eye... Crazy... Mary
B                      G
Down a long dirt road, past the Parson's place
B                   G
Their old blue car, we used to race
B                     A
Little country store, with a sign tagged to the side
B                            G
Said 'NO L-O-I-T-E-R-I-N-G ALLOWED'
B                           G
Underneath that sign allows congregated quite a crowd
B                      A          G
Take a bottle drink it down, pass it around (drink it down)
Take a bottle drink it down, drink,
               (pass it around) pass it around (pass it around)
Take a bottle drink it down, pass it, pass it a, pass it a-around
B
One night thunder cracked, Mercy backed outside her windowsile
E
Dreamed I was flying high above the trees, over the hills
B
Looked down into the house of Mary
F#m                  E
Terrible thought(?), newspaper covered walls
B
and Mary rising up above it all...
B     E     B     B     E     B     B
ah... ah...
B
Next morning on the way into town,
G
Saw some skid marks and followed them around
B                         G                        B
over the curb through the fields into the house of Mary
E?                      D?
That what you fear the most will meet you half way
That what you fear the most will meet you half way
B                         A       G
Take a bottle drink it down, pass it around (drink it down)
Take a bottle drink it down, pass it a, pass it around
Take a bottle drink it down, pass it a, pass it a, pass it a-around
                                                         

PjPjPjPjPjPjPjPjPjPjPjPjPjPjPjPjPjPjPjPjPjPjPjPjPjPjPjPjPjPjPjPjPjPjPjPjPjPjPj
(Sittin' On) The Dock Of The Bay
Otis Redding & Steve Cropper
Verse 1:
G                      B
Sittin' in the mornin' sun,
        C                   B Bb A
I'll be sittin' when the evenin' comes.
G                       B
Watching the ships roll in,
       C               B Bb A
then I watch 'em roll away again, yeah.
Chorus:
    G                          E
I'm sittin' on the dock of the bay,
             G          E
watching the tide roll away.
             G                          A
Oo, I'm just sittin' on the dock of the bay,
        G     E
wastin' time.
Verse 2:
I left my home in Georgia,
headed for the 'Frisco Bay.
I have nothing to live for,
it look like nothin's gonna come my way.
Chorus:
So, I'm just gon' sit on the dock of the bay,
watching the tide roll away.
Oo, I'm just sittin' on the dock of the bay,
wastin' time.
Bridge:
G    D       C
Look like nothing's gonna change.
G  D   C
Ev'rything still remains the same.
G D             C               G
I can't do what ten people tell me to do,
F                 D
so I guess I'll remain the same, yes.
Verse 3:
I'm sittin' here restin' my bones,
and this loneliness won't leave me alone, yes.
Two thousand miles I roamed
just to make this-a dock my home.
Chorus:
Now, I'm just gon' sit at the dock of the bay,
watching the tide roll away.
Oo, I'm just sittin' on the dock of the bay,
wastin' time.
Main riff:
The riff used during the choruses goes something like this...
    G                         E
----10----10----10-10-------|-------------------------|-----------------------
-10h12-10h12-10h12-10----12-|-------------------------|-----------------------
----------------------12-11-|-------------------------|-----------------------
----------------------------|-------------------------|-----------------------
----------------------------|-------------------------|-----------------------
----------------------------|-------------------------|-----------------------
    |     |     |__|  |__|    |     |     |     |
                                 \ These notes ring throughout
                                        the following bar
    G                         E
----10----10----10-10-------|-------------------------|-----------------------
-10h12-10h12-10h12-10----12-|-------------------------|-----------------------
----------------------12-11-|-------------------------|-----------------------
----------------------------|-------------------------|-----------------------
----------------------------|-------------------------|-----------------------
----------------------------|-------------------------|-----------------------
    |     |     |__|  |__|    |     |     |     |
                                 \ These notes ring throughout
                                        the following bar
    G                            A
-------10-10----10-10----------|-12----12----------------------|--------------
----10h12----10h12-10----12h14-|----14----14-12h14-12----10h12-|--------------
----------------------12-------|----------------------14-------|--------------
-------------------------------|-------------------------------|--------------
-------------------------------|-------------------------------|--------------
-------------------------------|-------------------------------|--------------
 |     |__|     |__|  |____|     |__|  |__|     |__|  |____|
    G                         E
-10----10-------10-10----------|-------------------------|--------------------
----12----12-10h12-10----------|-------------------------|--------------------
-------------------------11/13-|-------------------------|--------------------
-------------------------------|-------------------------|--------------------
-------------------------------|-------------------------|--------------------
-------------------------------|-------------------------|--------------------
 |__|  |__|     |__|  |_____|       |     |     |     |
                                    \ This note ring throughout
                                          the following bar

PjPjPjPjPjPjPjPjPjPjPjPjPjPjPjPjPjPjPjPjPjPjPjPjPjPjPjPjPjPjPjPjPjPjPjPjPjPjPj
F*!in' Up
Neil Young
Dmv      Ciii           C               F G
Mindless drifter on the road (why do I) ->
Carry such an easy load (why do I)
                                              
It's how you look and how you feel (why do I)
You must have a heart of steel (why do I)
Dm            C       G  
Why do I keep fuckin' up?
I can see you on a hill (why do I)
Comatose, but walking still (why do I)
Curves benath your flowing gown (why do I)
If only I could bring you down (why do I)
Why do I keep fuckin' up?
                                             
Dogs that lick and dogs that bite (why do I)
Hounds that howl through the night (why do I)
Broken leashes all over the floor (why do I)
Keys left hangin; in a swingin; door (why do I)
Why do I keep fuckin' up?
                  
(Keep fuckin' up)
                                          
PjPjPjPjPjPjPjPjPjPjPjPjPjPjPjPjPjPjPjPjPjPjPjPjPjPjPjPjPjPjPjPjPjPjPjPjPjPjPj
Hungerstrike
Temple of the Dog
Dropped D tuning (DADGBE)
Main Riff:
 G                 Cadd9             G                (organ: Gsus4)
                 
------------------|-----------------|-----------------|-----------------------
------0---3-----3-|-----0---3-----3-|-----0---3-----3-|-----0---3-----3-------
----0---0---0-----|---0---0---0-----|---0---0---0-----|---0---0---0-----------
--0-----------0---|-2-----------2---|-0-----------0---|-0-----------0---------
------------------|-----------------|-----------------|-----------------------
------------------|-----------------|-----------------|-----------------------
This part is later on doubled until the fourth measure, which is:
------------------------------------------------------------------------------
--3/5--3--0--3~~--------------------------------------------------------------
------------------------------------------------------------------------------
------------------------------------------------------------------------------
------------------------------------------------------------------------------
------------------------------------------------------------------------------
Bridge:
  D5 E5   D5 E5 
------------------------------------------------------------------------------
------------------------------------------------------------------------------
------------------------------------------------------------------------------
--0--2----0--2-----4b5r4b5r4~~~-----------------------------------------------
--0--2----0--2----------------------------------------------------------------
--0--2----0--2----------------------------------------------------------------
 
PjPjPjPjPjPjPjPjPjPjPjPjPjPjPjPjPjPjPjPjPjPjPjPjPjPjPjPjPjPjPjPjPjPjPjPjPjPjPj
I Won't Back Down
Tom Petty
       C#m   B    E          C#m   B    E
Well I won't back down, no I won't back down
        C#m      B         A              
You can stand me up at the gates of hell
       C#m  B    E
But I won't back down 

      C#m   B  E                C#m  B   E       
Gonna stand my ground, won't be turned around
         C#m       B          A            
And I'll keep this world from draggin' me down
        C#m B  E            C#m   B    E     AE
Gonna stand my ground and I won't back down     
A E B   EA                  E     B    E
Hey baby, there ain't no easy way out
A E B      C#M   B  E            C#m   B    E  
hey I will stand my ground and I won't back down  
Well I know what's right I got just one life
In a world that keep on pushin' me around  
But I'll stand my ground and I won't back down
Hey baby, there ain't no easy way out
Hey I will stand my ground and I won't back down 
And I won't back down
No I wont't back down
PjPjPjPjPjPjPjPjPjPjPjPjPjPjPjPjPjPjPjPjPjPjPjPjPjPjPjPjPjPjPjPjPjPjPjPjPjPjPj
I've Got A Feeling 
The Beatles
 
Intro:                      Main Riff:
 A           D/A             A           D/A
---------5------------5--------------5------------5---------------------------
---------2----2---3---3--------------2----2---3---3---------------------------
------2-----2_h_4---4---2---------2-----2_h_4---4---2-------------------------
-------------------------------2----------------------------------------------
----0--------------------------0----------------------------------------------
----0-------------------------------------------------------------------------
 
w/ Main Riff x 8
A             D/A  - A              D/A        - A  D/A       - A        D/A
Ive got a feeling a feeling deep inside Oh yeah        Oh yeah  Thats right
 
 
A             D/A  -   A           D/A       - A  D/A     - A   D/A
Ive got a feeling a feeling i cant hide oh no  no    oh no          oh no
 
 
Git 1 plays chords when not playing the riff (see bottom for shapes)
Git 2 plays:
 
 A7                              E       G          D
------------------------------------------------------------------------------
---8-------8------8------8----------------------------------------------------
---9-9-9---9-9-9--9-9-9--9-9-9------------------------------------------------
---7-7-7---7-7-7--7-7-7--7-7-7------------------------------------------------
------------------------------------------0-2-3-4-5---------------------------
----------------------------------0-2-3-4-------------------------------------
             yeah                  yeah             ive got a feel
 
 w/ Main Riff Git 1 x 10
  A            D/A           A            D/A
-----12-\--9--------------------12-\--9---------------------------------------
-----14--\-10--7- 8-7-----------14--\-10--7- 8-7------------------------------
---------------7-h7-7---------------------7-h7-7------------------------------
---------------7- 9-7---------------------7- 9-7------------------------------
------------------------------------------------------------------------------
------------------------------------------------------------------------------
- ing  yeah
 
   A     D/A                 A                    D/A
-------------5------5--------------5--------------5--------5------5-----------
-------------5------5--------------5--------------5--------5------5-----------
-------------6------6--------------6--------------6--------6------6-----------
-------------7------7--------------7--------------7--------7------7-----------
------------------------------------------------------------------------------
------------------------------------------------------------------------------
Oh  please believe me,I'd hate to miss the train   Oh yeah
Ive got a  feel ing  that keeps me on  my  toes    Oh yeah
 
 
  A     D/A          A             D/A      A                 D/A
--5--5---------------5--5--------5------5------5------------------------------
--5--5--7--8---------5--5--7--8--5------5------5--------------7-------5-------
--6--6--7--7------------6--7--7--6------6------6--------------7-------6-------
--7--7--7--9------------7--7--9--7------7------7--------------7-------7-------
------------------------------------------------------------------------------
------------------------------------------------------------------------------
  yeah       Oh yeah.                      And if you leave me        I
             Oh yeah.                      Ive got a feeling I think that
 
 
  A                 D/A          A     D/A           A     D/A
------------------------5--------5--5----------------5--5---------------------
-------------5----------5--------5--5--7--8----------5--5--7--8--7------------
-------------6--7---7---6--------6--6--7--7----------6--6--7--7--7------------
-------------7--7---7---7--------7--7--7--9----------7--7--7--9--7------------
------------------------------------------------------------------------------
------------------------------------------------------------------------------
  won't be late again   oh no               oh no                oh no
  every    body knows   oh yeah             oh yeah            oh yeah
 
 
 A7                             E       G          D
------------------------------------------------------------------------------
---8------8------8------8-----------------------------------------------------
---9-9-9--9-9-9--9-9-9--9-9-9-------------------------------------------------
---7-7-7--7-7-7--7-7-7--7-7-7-------------------------------------------------
-----------------------------------------0-2-3-4-5----------------------------
---------------------------------0-2-3-4--------------------------------------
            yeah                  yeah             Ive got a feel
            yeah                  yeah             Ive got a feel
 
 
  A            D/A           A              D/A
-----12-\--9--------------------12-\--9---------------------------------------
-----14--\-10--7- 8-7-----------14--\-10----7- 8-7----------------------------
---------------7-h7-7-----------------------7-h7-7----------------------------
---------------7- 9-7-----------------------7- 9-7----------------------------
------------------------------------------------------------------------------
------------------------------------------------------------------------------
- ing  yeah                 Ive got a feeling
- ing  yeah                                 yeah
 
  _____
 |1.
  E                                        G7
--10b12----10b12------10b11~11~11~11r10-7---7---7----7--------7------7------7-
--------------------------------------------8b9b10---8b10r8---8b10r8-8b10r8-8-
------------------------------------------------------------------------------
------------------------------------------------------------------------------
------------------------------------------------------------------------------
------------------------------------------------------------------------------
 All these years I've been wandering around,Wondering how come nobody told me
 
 
 D7
-----8b10~10----------------8b10~10~10~10r8--5--------------------------------
------------------------------------------------------------------------------
------------------------------------------------------------------------------
------------------------------------------------------------------------------
------------------------------------------------------------------------------
------------------------------------------------------------------------------
 All that I was looking for was somebody Who looked like you.
 
 
 A7          /\/\/\/\/\/\/\/\/\/\/\
------------------------------------------------------------------------------
------------------------------------------x-----------------------------------
--7b9~9b10b11r9r8---(7)b8~8~8~8~8~-5b7r5--------------------------------------
-----------------------------------------7x-----------------------------------
------------------------------------------------------------------------------
------------------------------------------------------------------------------
 
 ____
|2.   w/ Main Riff x6
  A        D/A              A          D/A
-----5--5-------------------5--5---5------------------------------------------
-----5--5--7- 8--7----------5--5---5-0-7- 8--7---7----------------------------
-----6--6--7-h7--7----------6--6---6---7-h7--7---7----------------------------
-----7--7--7- 9--7----------7--7---7---7- 9--7---7----------------------------
------------------------------------------------------------------------------
------------------------------------------------------------------------------
 Ev'rybody had a hard year Ev'rybody had a good time
 Ev'rybody had a good year,Ev'ry let their hair down
 
 
    A              D/A           A               D/A
----5--5--------------------------5--5----------------------------------------
----5--5--7- 8-----7-----7--------5--5--7- 8-----7-----7----------------------
----6--6--7-h7-----7-----7--------6--6--7-h7-----7-----7----------------------
----7--7--7- 9-----7-----7--------7--7--7- 9-----7-----7----------------------
------------------------------------------------------------------------------
------------------------------------------------------------------------------
 Ev'rybody had a   wet   dream,  Ev'rybody saw the sunshine
 Ev'rybody pulled their socks up Ev'rybody put their foot down.
 
 
 ______                                ___
|1.                                   |2.  See end for notes
 A       D/A    A        D/A           A7 [Edim/A      D#dim/A Ddim/A]
------------------------------------------------------------------------------
---------7--7------5--5--7- 8-----7-x------8-8-8--8-8-8--7-7-7--6-6-6---------
---------7--7------6--6--7-h7-----7------9---9-9--9-9-9--8-8-8--7-7-7---------
---------7--7------7--7--7- 9-----7-x-------(8)---------(7)----(6)------------
------------------------------------------------------------------------------
------------------------------------------------------------------------------
 Oh yeah,    Oh    yeah.
 
 
[C#dim/A        Cdim/A Bdim/A]     A        D/A         A       D/A
--------------------------------------5----------5--------5-----------5-------
--5-5-5--5-5-5--6-6-6--7-7-7--8-----------------------------------------------
--6-6-6--6-6-6--7-7-7--8-8-8--9-----------2---2----2----2-----2---2-----------
-(5)-----------(6)----(7)-----------2---2-h-4--4------------2---4---4----2----
----------------------------------0--------------------0----------------------
------------------------------------------------------------------------------
 
                                                     ______
   w/ Main riff 4x                                  |1.
    A        D/A            A        D/A              A        D/A
---------12-12b14~r12---------9------------------12---------------------------
--x--12b14-------------------------------10-12b14---------------7---8----7----
----------------------------------------------------------------7 h 7----7----
--x--1.-I-got-a-feeling-a---feeling-i-cant-hide-o-no------------7---9----7----
-----2.-I-got-a-feeling-a---feeling-deep-inside-o-ye---------oh---yeah--------
------------------------------------------------------------------------------
 Ev'rybody had a good year Ev'rybody had a hard time Ev'rybody had a wet dream
 Ev'rybody had a good year,Ev'ry let their hair down
 
                              _____
                             |2.
  A         D/A                     A           D/A
------------------------------------5-----------------------------------------
------------7---8--7---7----x-------5----5------7---8--7----7-----------------
------------7-h-7--7---7------------6-----------7-h-7--7----7-----------------
------------7---9--7---7----x-------7-----------7---9--7----7-----------------
---------------------------------------------------Oh-no-no-no----------------
------------------------------------------------------------------------------
 Everybody saw the sun shine   Ev'rybody pulled their socks up
 
  A         D/A                     A7 [Edim/A D#dim/A Ddim/A]
---------5----------------5---------------------------------------------------
--5--5---5--7- -8---------7--------------8-----7-----7------------------------
--6--6---6--7-h-7---------7--------------9-9-9-8-8-8-8------------------------
--7--7---7--7- -9---------7---------------------------------------------------
------------------------------yeh---------------------------------------------
------------------------------------------------------------------------------
 Everybody put their foot down oh   yeah
 
 [C#dim/A    Ddim/A D#dim/A] [Edim/A D#dim/A Ddim/A]
----------------------------------5-5-5-7-7-7-8-8-8---------------------------
--5-5--5-5-5-7-7-7-6-6-6------5---5-5-5-6-6-6-7-7-7---------------------------
--6-6--6-6-6-8-8-8-7-7-7------6---6-6-6-7-7-7-8-8-8---------------------------
------------------------------------------------------------------------------
----Ive-got-a-feeling---------------------------------------------------------
------------------------------------------------------------------------------
 
 [C#dim/A  Ddim/A D#dim/A] [Edim/A D#dim/A Ddim/A]
--9-9-9-9-9-9-8-8-8-7-7-7---5---5-5-5-7-7-7-8-8-8-----------------------------
--8-8-8-8-8-8-7-7-7-6-6-6---5---5-5-5-6-6-6-7-7-7-----------------------------
--9-9-9-9-9-9-8-8-8-7-7-7---6---6-6-6-7-7-7-8-8-8-----------------------------
------------------------------------------------------------------------------
------------------------------------------Ive-got-----------------------------
-------------------------------------------a-feel-----------------------------
          Oh yeah
 
 [C#dim/A  Ddim/A D#dim/A]  A
--9----9-9-9-8-8-8-7-7-7------------------------------------------------------
--8----8-8-8-7-7-7-6-6-6----5-------------------------------------------------
--9----9-9-9-8-8-8-7-7-7----6-------------------------------------------------
----------------------------7-------------------------------------------------
--ing--------yeah-------------------------------------------------------------
------------------------------------------------------------------------------
 
Notes:
 
/\/\/\/\/\ Vibrato
7b8~8      Pluck,Bend up a semitone from 7th fret hold and strike again
(8)        Implied note [ghost]
7b9r7      Pluck, bend 7th fret up two semitones, pluck, release and pluck
 
A7  x02223      - This is
G   320003     x- supposed        There are a couple of really
E   032200      - to be           nifty bass runs in this song
D   x00232     x- a repeat        which I might add if there
G7  320001      - sign            is any interest?
D7  x00212
 
Guitar 1 wierd shape info
 
                    The tab here is shows the timing that should
                    be used. They are triplets.
 
                   [Edim/A    D#dim/A Ddim/A] [C#dim/A Cdim/A Bdim/A]
Bdim/A    x0343x  ------------------------------------------------------------
Cdim/A    x0454x  --8-8-8-8-8-8--7-7-7-6-6-6--5-5-5-5-5-5--4-4-4-3-3-3--------
C#dim/A   x0565x  --9-9-9-9-9-9--8-8-8-7-7-7--6-6-6-6-6-6--5-5-5-4-4-4--------
Ddim/A    x0676x  --8-8-8-8-8-8--7-7-7-6-6-6--5-5-5-5-5-5--4-4-4-3-3-3--------
D#dim/A   x0787x  ------------------------------------------------------------
Edim/A    x0898x  ----I got a feeling-----------------------------------------
                                \ these are overdubbed voices
 
These D shapes     [Edim/A    D#dim/A Ddim/A] [C#dim/A    Ddim/A D#dim/A]
are moved up &    ------------------------------------------------------------
down. Usually     --8-8-8-8-8-8--7-7-7-6-6-6--5-5-5-5-5-5--6-6-6-7-7-7--------
they correspond   --9-9-9-9-9-9--8-8-8-7-7-7--6-6-6-6-6-6--7-7-7-8-8-8--------
to what Git 2     --8-8-8-8-8-8--7-7-7-6-6-6--5-5-5-5-5-5--6-6-6-7-7-7--------
is playing but    ------------------------------------------------------------
not always        ------------------------------------------------------------
                   these two bars are repeated three times
PjPjPjPjPjPjPjPjPjPjPjPjPjPjPjPjPjPjPjPjPjPjPjPjPjPjPjPjPjPjPjPjPjPjPjPjPjPjPj
I've Got You
Split Enz
D5              Ab    A5               G5   G
        I've got you, and that's all I want
        I won't forget 'cause that's a whole lot
        When something's wrong I feel uneasy
        You show me, tell me you're not teasin'
        A      G         A         G      D         Dsus4 D Dsus2 D
        I don't know why sometimes I get frightened
        A       G        Bm        G      A
        You can see my eyes and tell that I'm not lying
D5              Ab    A5               G5   G
        Look at you, you're a pageant
        You're everything, oh yeah, that I've imagined
        I don't go out, now that you're here
        Sometimes we shout, but that's no problem
        A      G         A         G      D         Dsus4 D Dsus2 D}(2x)
        I don't know why sometimes I get frightened                }
                                                                   }
                                                                   }
        A       G        Bm        G      A                        }
        You can see my eyes and tell that I'm not lying            }
(4x)--> G5 A5 (and then this lick) 
------------------------------------------------------------------------------
---8--7--5--------------------------------------------------------------------
------------7-----6-7-6-7/9--7------------------------------------------------
------------------------------------------------------------------------------
------------------------------------------------------------------------------
------------------------------------------------------------------------------
F FF G GG
D5              Ab    A5               G5   G
        There's no doubt, but when I'm with you
        When I'm without, I stay in my room
        Where do you go?  I get no answer
        You're always out, it gets on my nerves...
        A      G         A         G      D         Dsus4 D Dsus2 D}(4x)
        I don't know why sometimes I get frightened                }
                                                                   }
                                                                   }
        A       G        Bm        G      A                        }
        You can see my eyes and tell that I'm not lying            }

PjPjPjPjPjPjPjPjPjPjPjPjPjPjPjPjPjPjPjPjPjPjPjPjPjPjPjPjPjPjPjPjPjPjPjPjPjPjPj
The Kids Are Alright
Pete Townshend
D5                      G            A       D 
     I don't mind other guys dancing with my girl.
G A         D        G             A      D
     That's fine.  I know them all pretty well
           Em               A               G               D
     But I know sometimes I___ must get out___ in the light___.
            Em               A                       D
     Better leave her behind___ where the kids are alright.
  A                 D
     The kids are alright.
  A      D       G            A        D
     Sometimes I feel I gotta get away___.
 G A       D         G            A    D
     Bells chime.  I know I gotta get away
           Em              A               G             D
     And I know if I don't___, I'll go out___ of my mind___.
            Em               A                       D
     Better leave her behind___ where the kids are alright.
 A                  D
     The kids are alright.
 A A*                                    G*
     I know if I'd go, things'd be a lot better for her.
 A*                                               G*
     I had things planned, but her folks wouldn't let her.
             D          G            A       D
     I don't mind other guys dancing with my girl.
 G A        D        G             A      D
     That's fine.  I know them all pretty well
               Em          A            G           D
     But I know sometimes I must get out in the light.
                 Em   [NC]                        D
     Better leave her behind where the kids are alright.
   A                D
     The kids are alright.
(solo -- mostly A, G*, and A*)
 G*      D       G            A    D
     Sometimes I feel I gotta get away.
 G A       D         G            A    D
     Bells chime.  I know I gotta get away
           Em         A              G         D
     And I know if I don't, I'll go out of my mind.
            Em         A                          D     Dsus4  A
     Better leave her behind where the kids are alright_________.
(same pattern, D, Dsus4, A)
The kids are alright.  The kids are alright.
               D
The kids are alright.

PjPjPjPjPjPjPjPjPjPjPjPjPjPjPjPjPjPjPjPjPjPjPjPjPjPjPjPjPjPjPjPjPjPjPjPjPjPjPj
Let My Love Open The Door
Pete Townshend
Verse and Chorus are variations on the chord pattern C G F.  
During the "Got the only key to your heart..." bridge the chord pattern is 
Am Dm Bb G.

PjPjPjPjPjPjPjPjPjPjPjPjPjPjPjPjPjPjPjPjPjPjPjPjPjPjPjPjPjPjPjPjPjPjPjPjPjPjPj
Little Wing
Jimi Hendrix
           Em                         G
Well she's walkin through the clouds
       Am                              Em7(VII)
With a circus mind that's running wild
Bm                         Bb       Am                   G
Butterfilies and zebras and moonbeams and, uh, fairy tales
       Fadd9                      C               D       D
That's all she ever thingks about, riding with the wind
         Em                  G
When I'm sad, she comes to me
        Am                             Em7(VII)
With a thousand smiles she gives to me        free
Bm                         Bb       Am
It's alright, she says it's alright
     C                G
Take anything you want from me
Fadd9    C   D        D
Anything     Anything
Em    G                  Am7
      Fly on Little Wing
Em7(VII)   Bm7   Bb   Am   C    G   Fadd9   C   D   D
Em                    G
   Yea, yea, yea, yea  little baby
Am7   Em7(VII)   (fade out)

PjPjPjPjPjPjPjPjPjPjPjPjPjPjPjPjPjPjPjPjPjPjPjPjPjPjPjPjPjPjPjPjPjPjPjPjPjPjPj
Masters of War 
Bob Dylan
Am    Am7 Am
Am               Am Am7 Am
Come you masters of war
Am                      Am Am7 Am
You that build the big guns
Am                      Am Am7 Am
You that build the death planes
Am                        Am Am7 Am
You that build all the bombs
Am                     Am Am7 Am
You that hide behind walls
Am                      Am Am7 Am
You that hide behind desks
Am     C           G          F                Am     Am7 Am
I just want you to know I can see through your masks
And the song just continues in that vein for the rest of the
verses:
You that never have done nothin' but build to destroy
You play with my world like it's your little toy
You put a gun in my hand then you hide from my eyes
Then you turn and run farther when the fast bullets fly
Like Judas of old you lie and deceive
A world war can't be won, and you want me to believe
But I see through your eyes and I see through your brain
Like I see through the water that runs down my drain
You that fasten all the triggers for the others to fire
Then you sit back and watch while the death count gets
higher
You hide in your mansions while the young people's blood
Flows out of their bodies and gets buried in the mud
You've thrown the worst fear that can ever be hurled
Fear to bring children into the world
For threatening my baby, unborn and unnamed
You ain't worth the blood that runs in your veins
How much do I know to talk out of turn
You might say that I'm young, you might say I'm unlearned
But there's one thing I know, though I'm younger than you
Even Jesus would never forgive what you do
Let me ask you one question:  is your money that good?
Will it buy you forgiveness?  Do you think that it could?
I think you will find when your death takes its toll
All the money you made won't ever buy back your soul
And I hope that you die and your death will come soon
I'll follow your casket through the pale afternoon
And I'll watch while you're lowered into your death bed
Then I'll stand over your grave till I'm sure that you're
dead

PjPjPjPjPjPjPjPjPjPjPjPjPjPjPjPjPjPjPjPjPjPjPjPjPjPjPjPjPjPjPjPjPjPjPjPjPjPjPj
Patriot
  D                 G  
And the rivers shall open for the righteous  (2x)
And the rivers shall open for the righteous, someday
        D     G         D       G 
I went walking, with my brother
        D     G           A   G
And he wondered, oh, how I am
   :
        D    G                D       G 
I am a patriot, and I love my country
   :
               D        G                D        G 
And I ain't no communist, and I ain't no socialist
And I ain't no capitalist, and I ain't no imperialist
And I ain't no democrat, I sure ain't no republican either
                D     G            D     G  D     G     A
I only know one party, and that is freedom, I am, I am, I am
PjPjPjPjPjPjPjPjPjPjPjPjPjPjPjPjPjPjPjPjPjPjPjPjPjPjPjPjPjPjPjPjPjPjPjPjPjPjPj
Redemption Song
Bob Marley
------------------------------------------------------------------------------
------------------------------------------------------------------------------
------------------------------------------------------------------------------
-----------------------2---O--------------------O-----------------------------
------O---2--------3-----------2--------O---2-------2----3---O----------------
--3-----------3---------------------3----------------------------3------------
------------------------------------------------------------------------------
------------------------------------------------------------------------------
------------------------------------------------------------------------------
-----------------------2---O--------------------O-----------------------------
------O---2--------3-----------2--------O---2--------3---O--------------------
--3-----------3---------------------3------------------------3----------------
    G                      Em7
Old Pirates, yes, they rob I.
    C         G/B             Am
Sold I to the merchant ships
G                      Em  C         G/B       Am
minutes after they took I   from the bottomless pit.
       G            Em7
But my hand was made strong
C           G/B          Am
By the hand of the Almighty.
     G                  Em   C          D
We forward in this generation triumphantly.
Chorus
                         G  C    D          G
   Won't you help to sing    these songs of freedom?
          C     D       Em  C   D      G
   'Cause all I ever had,    redemption songs,
  C   D      G        C
   redemption songs.
D     G                           Em7
Emancipate yourselves from mental slavery,
           C           G/B             Am
None but ourselves can free our minds.
       G                    Em
Have no fear for atomic energy,
              C         G/B            Am
'Cause none of them can stop the time.
    G                        Em7
How long shall they kill our prophets
        C       G/B            Am
While we stand aside and look?
             G            Em
Yes, some say it's just a part of it.
      C                 D
We've got to fulfill the book.
Chorus
Emancipate yourselves from mental slavery,
None but ourselves can free our minds.
Have no fear for atomic energy,
'Cause none of them can stop the time.
How long shall they kill our prophets
While we stand aside and look?
Yes, some say it's just a part of it.
We've got to fulfill the book.
Won't you help to sing these songs of freedom?
'Cause all I ever had, redemption songs,
These songs of freedom, songs of freedom.
G       320003          Em7     020000
C       x32010          G/B     x20003
Am      x02210          Em      022000
D       xx0232

PjPjPjPjPjPjPjPjPjPjPjPjPjPjPjPjPjPjPjPjPjPjPjPjPjPjPjPjPjPjPjPjPjPjPjPjPjPjPj
Rockin' in the Free World
Neil Young
Intro/Verse: 
For the verses you basically need: Em, D and C
but the strumming pattern and fretting actually
involve a G. Here's how to strum the Em measure 
(intro and verse alike):
Em
-
(1 +  2  +  3  +  4  +)
DN UP DN UP DN UP DN UP 
B  -  $  $  -  $  $  $  
Meaning it is an Em chord for the whole measure,
play only the bass note (the E string) on the first
beat (indicated by the 'B' -from Bass- above), the '-' means don't
strum on the strings and a '$' means play the chord indicated
above (Em in this case).
The D and C measure is strummed as follows:
D     N  C           N
-     -  -           -
DN UP DN UP DN UP DN UP
$  $  $  $  -  $  $  $
Meaning play a D chord for the first beat then on the
down stroke of the second beat hit the strings without
any fretting (indicated by 'N' above), this would actually
sound as a G (especially that you're most likely to hit only
the D, G, B and E strings). Then directly play a C chord on
the up-stroke of the second beat (in fact you'd ready your fingers
for the C chord while hitting the "G chord"). The same trick is
done at the last up-stroke of the 4th beat where you, again, play the
open strings just before hitting the bass of the Em chord of the
following measure (as indicated in the Em measure).
Chorus:
As for the chorus: it is G, D, C and Em which is easy to play:
The 3 measures of G D and C are the same:
G/D/C
-
DN UP DN UP DN UP DN UP
$  - ($) $  -  $  $  $
The ($) means optional. In fact you'd interleave all kinds of strumming
patterns here.
The last measure (4th) of each line in the chorus goes like this:
C        Em
-        - 
DN UP DN UP DN UP DN UP
$  $  $  $  -  $  $  $
Here you'd notice that in fact you'd naturally hammer on
the Em on the upstroke of the 2nd beat.
Between chorus and verses:
Basically 4 measures of A (interleaved with A7) anyways if you want
to get a flavor of how it is played (read I play it ;-):
1)                       2)
A              A7        A7          A        A7
-              -         -           -        -
DN UP DN UP DN UP DN UP  DN UP DN UP DN UP DN UP
$  -  $  -  $  $  $  $   -  $  $  $  $  $  $  $
3)                       4)
A7          A        A7  A7    A
-           -        -   -     -
DN UP DN UP DN UP DN UP  DN UP DN UP DN UP DN UP
-  $  $  $  $  $  $  $   -  $  $  -  $  -  $  -
The second time the bridge is played a different pattern is used 
but who cares (I'm tired of typing ;-).
1) BTW I have 3 versions of the song, 2 electric (from Freedom and Weld)
and one acoustic, this is the acoustic version from Neil Young's "Freedom"
album. 
2) Note though that he plays it by tuning all the strings one WHOLE NOTE
down: (E A D G B E -> D G C F A D). Except this, he seems to add
a D note on the second string when playing the Em making it an Em7 
(or actually, in his tuning, a C note when playing Dm) but that's a minor
detail and it sounds just beautiful with the Em.
3) The acoustic version has only 2 verses while the "plugged" ;-) ones
contain one additional verse. I have included it here too.
Sounds complicated? not really.
PjPjPjPjPjPjPjPjPjPjPjPjPjPjPjPjPjPjPjPjPjPjPjPjPjPjPjPjPjPjPjPjPjPjPjPjPjPjPj
Sonic Reducer
The Dead Boys
Intro:
---------
---------
----hold-
-11-9----
-11-9----
-9--7----
------------------------------------------------------------------------------
------------------------------------------------------------------------------
------------------------------------------------------------------------------
------------------------------------------------------------------------------
------------------------------------------------------------------------------
-9-9-9-9-9-9-9-9\4-4-4-4-4-4-4-4/--5-5-5-5-5-5-5-5\2-2-2-2-2-2-2-2/-----------
------------------------------------------------------------------------------
------------------------------------------------------------------------------
------------------------------------------------------------------------------
------------------------------------------------------------------------------
------------------------------------------------------------------------------
-9-9-9-9-9-9-9-9\4-4-4-4-4-4-4-4/--5-5-5-5-5-5-5-5\2-2-2-2-2-2-2-2/-----------
 
------------------------------------------------------------------------------
------------------------------------------------------------------------------
------------------------------------------------------------------------------
-11-11-11-11-11-11-11-11-6--6--6--6--6--6--6--6-------------------------------
-11-11-11-11-11-11-11-11-6--6--6--6--6--6--6--6-------------------------------
-9--9--9--9--9--9--9--9--4--4--4--4--4--4--4--4-------------------------------
------------------------------------------------------------------------------
------------------------------------------------------------------------------
------------------------------------------------------------------------------
-7--7--7--7--7--7--7--7--4--4--4--4--4--4--4--4-------------------------------
-7--7--7--7--7--7--7--7--4--4--4--4--4--4--4--4-------------------------------
-5--5--5--5--5--5--5--5--2--2--2--2--2--2--2--2-------------------------------
------------------------------------------------------------------------------
------------------------------------------------------------------------------
-11-11-11-11-11-11-11-11-6--6--6--6--6--6--6--6-------------------------------
-11-11-11-11-11-11-11-11-6--6--6--6--6--6--6--6-------------------------------
-9--9--9--9--9--9--9--9--4--4--4--4--4--4--4--4-------------------------------
------------------------------------------------------------------------------
------------------------------------------------------------------------------
------------------------------------------------------------------------------
-7--7--7--7--7--7--7--7--4--4--4--4--4--4--4--4-------------------------------
-7--7--7--7--7--7--7--7--4--4--4--4--4--4--4--4-------------------------------
-5--5--5--5--5--5--5--5--2--2--2--2--2--2--2--2-------------------------------
Verse:
same chords as above (muting out some chords
for a more scratchy feel)
Pre-chorus:
------------------------------------------------------------------------------
------------------------------------------------------------------------------
------------------------------------------------------------------------------
-2------------4------------7-------------9------------------------------------
-2------------4------------7-------------9------------------------------------
-0------------2------------5-------------7------------------------------------
"I've got my time machine,  got my electronic dream..."
Chorus:
------------------------------------------------------------------------------
------------------------------------------------------------------------------
------------------------------------------------------------------------------
-9-/-11-11-11-----9-/-11-11-11----7----9--------------------------------------
-9-/-11-11-11-----9-/-11-11-11----7----9--------------------------------------
-7-/-9--9--9------7-/-9--9--9-----5----7--------------------------------------
"Sonic Reducer, ain't no loser..."
PjPjPjPjPjPjPjPjPjPjPjPjPjPjPjPjPjPjPjPjPjPjPjPjPjPjPjPjPjPjPjPjPjPjPjPjPjPjPj
Walkin' The Cow
C   Am   C   Am
C          Am
Tried to remember
        C                Am
But my feelings get        ?
F               Dm
Tried to recall
          F        Dm
But it's gone
        C   Am           C    Am
Lucky stars     in your eyes
     G           C    Am   C   Am
I'm walkin' the cow
C   Am   C   Am   Dm
          F                Am   G   Dm
I really don't know how I came here
          F                  Am      G      Dm
I really don't know why I'm staying here, o-oh
     G           C
I'm walkin' the cow
C   Am   C   Am
F   Dm   F   Dm
C   Am   C   Am
F   Dm   F   Dm
C                 Am
Tried to point my finger
         C                      Am
But the wind keeps blowin' me around
    F      Dm
In circles
 F      Dm
Circles
        C   Am           C    Am
Lucky stars     in your eyes
     G           C    Am   C   Am
I'm walkin' the cow
C   Am   C   Am   Dm
          F                 Am      G     Dm
I really don't know what I have to fear
          F                Am      G      Dm
I really don't know why I have to care, o-oh
     G           C   Am   C   Am
I'm walkin' the cow
        C   Am           C    Am
Lucky stars     in your eyes
C   Am   C   Am
C   Am   C   Am   C

PjPjPjPjPjPjPjPjPjPjPjPjPjPjPjPjPjPjPjPjPjPjPjPjPjPjPjPjPjPjPjPjPjPjPjPjPjPjPj
PjPjPjPjPjPjPjPjPjPjPjPjPjPjPjPjPjPjPjPjPj
Pj                                      Pj
Pj                Bass                    Pj
Pj                                      Pj 
PjPjPjPjPjPjPjPjPjPjPjPjPjPjPjPjPjPjPjPjPj
PjPjPjPjPjPjPjPjPjPjPjPjPjPjPjPjPjPjPjPjPjPjPjPjPjPjPjPjPjPjPjPjPjPjPjPjPjPjPj
Black
Fretless Bass
-21---------------------------------------------------------------------------
-----20\--15------------------------------------------------------------------
--------------14\-------------------------------------------------------------
------------------------------------------------------------------------------
---------------------|----------------------------|-------------------|-------
---------------------|----------------------------|-------------------|-------
--7------7--7-----7\-|-----------4-4---4-5-5-6-6--|----7------7----7\-|-------
---------------------|-5-----5-5------------------|--------0----------|-------
Sheets of empty canvas ...
----------------------|----------------|----------------------------|---------
----------------------|----------------|----------------------------|---------
----------------------|-7------7----7\-|-----------4-4---4-5-5-6-6--|---------
-5---X-5/7\5--5-4-(4)/|----0-----------|-5-----5-5------------------|---------
-------|---------|------------------------------------------------------------
-------|---------|------------------------------------------------------------
-7-----|---------|------------------------------------------------------------
-------|----0----|------------------------------------------------------------
---------------------|----------------------------|-------------------|-------
---------------------|----------------------------|-------------------|-------
--7------7--7-----7\-|-----------4-4---4-5-5-6-6--|----7------7----7\-|-------
---------------------|-5-----5-5------------------|--------0----------|-------
All five horizons ....
----------------------|----------------|----------------------------|---------
----------------------|----------------|----------------------------|---------
----------------------|-7------7----7\-|-----------4-4---4-5-5-6-6--|---------
-5---X-5/7\5--5-4-(4)/|----0-----------|-5-----5-5------------------|---------
-------|---------|------------------------------------------------------------
-------|---------|------------------------------------------------------------
-7-----|---------|------------------------------------------------------------
-------|----0----|------------------------------------------------------------
-------|----------|-----5--------5--5--|---------------5---|------------------
-------|----------|--------------------|-------------------|------------------
-7-----|-------7\-|--3-----3-3-3-------|-3---3-3-3-3-3---5/|------------------
-------|-0--------|--------------------|-------------------|------------------
       (1st chorus) Oh and all I taught her ....
------------------|----------------------12-12-12\|-----------------|---------
------------------|-12/14---------12-h14----------|-----------------|---------
/7-------7--------|-------------------------------|-3----3-3-3-3----|---------
----0--0-----0-0--|--------0----------------------|-----------------|---------
-----------5-----5-----|----------------|--------------|----------------------
-----------------------|----------------|--------------|----------------------
-3---X-3-3---3-3---3-5-|-7------7-------|-7----7---7--5|----------------------
-----------------------|-----0----------|--------------|----------------------
-------------------|----5----5-------|----------------|-----------------------
-------------------|-----------------|----------------|-----------------------
--(5)-5-5-5-5-5-5-3|--3----3---3/5-7-|----7-7-----7-5-|-----------------------
-------------------|-----------------|--0-----0-0-----|-----------------------
-----------------|----------------------|------------|------------------------
-----------------|----------------------|------------|------------------------
--5-5--5-5-5-5-3-|-3-5/7-3-3-3-3-3-3/5-7|-7-7-7------|------------------------
-----------------|----------------------|------------|------------------------
---------------------|----------------------------|-------------------|-------
---------------------|----------------------------|-------------------|-------
--7------7--7-----7\-|-----------4-4---4-5-5-6-6--|----7------7----7\-|-------
---------------------|-5-----5-5------------------|--------0----------|-------
I take a walk ...
----------------------|----------------|----------------------------|---------
----------------------|----------------|----------------------------|---------
----------------------|-7------7----7\-|-----------4-4---4-5-5-6-6--|---------
-5---X-5/7\5--5-4-(4)/|----0-----------|-5-----5-5------------------|---------
-------|---------|------------------------------------------------------------
-------|---------|------------------------------------------------------------
-7-----|---------|------------------------------------------------------------
-------|----0----|------------------------------------------------------------
------------------|--------------|-------------5----|---------------5----|----
------------------|--------------|------------------|--------------------|----
------7-----------|-7----7---7\--|--3-3--3-3-3------|-3--X-3-3--3-3----5/|----
----------0--0----|--------------|------------------|--------------------|----
                                                            12-h13--(12)\|----
                        (2nd chorus) Ho and twisted thoughts...
---------------|----------------------------12-h13-(12)\-|--------------------
---------------|---12-h14------------12-h14--------------|--------------------
/7-------------|--------------12-h14---------------------|--------------------
-----0--0------|-----------------------------------------|--------------------
-----------------5---|---------5--------------|-----------------|-------------
---------------------|------------------------|-----------------|-------------
-3-----3-3-3-3-3-----|-3-----3----3-3--3--5-5-|7----------------|-------------
---------------------|------------------------|----0---0--------|-------------
--------------7-|------7--7---7-5-|------5---------------|--------------------
----------------|-----------------|----------------------|--------------------
--7-----7--7--5-|---5-----5-5-5-3-|---3-----3--3-3-3/5-7-|-------------------- 
-----0----------|-----------------|----------------------|--------------------
--------------------|-----7-------7-5-|--(5)----5-------------|---------------
--------------------|-----------------|-----------------------|---------------
------7--7------7-5-|---5-----5-5-5-3-|--(3)-3-----3--3-3-5/7-|---------------
---0--------0-0-----|-----------------|-----------------------|---------------
-----------------|-----7-------------|-----5---------5---|--------------------
---9--------9----|-------------------|-------------------|--------------------
-----7---7---7-5-|---5-----5-5-5-5-3-|---3----3--3-3---5-|--------------------
-----------------|-------------------|-------------------|--------------------
-----7--------------|---------5----------------|---------------------7-|------
--------------------|--------------------------|-----------------------|------
---5----5--5-5-5--3-|---(3)-3-----3--3-3-3/5-7-|-----7------7-----7--5-|------
--------------------|--------------------------|---0----0-0---0-0------|------
-----7------7-----7---|------5--------------|---------------------------------
----------------------|---------------------|---------------------------------
---5----5-5---5-5---3-|---3------3--3-3-5/7-|---------------------------------
----------------------|---------------------|---------------------------------
-------------------7-|----------------7-5-|------5---------------|------------
---------------------|--------------------|----------------------|------------
(7)----7-----7-7-7-5-|--5--5---5--5-5---3-|---3-----3--3-3-3/5-7-|------------
----0-----0----------|--------------------|----------------------|------------
repeat  (the above 3 bars) 8 times simile
-------------------7-|--(7)---7----7----7-5-|-----5-----5-----------|---------
---------------------|----------------------|-----------------------|---------
(7)----7-----7-7-7-5-|--(5)-5-5--5----5---3-|-3-3---3-3---3-3-3/4-5-|---------
----0-----0----------|----------------------|-----------------------|---------
-----7--------7-----7\5-|------5-------------------|--------------------------
------------------------|--------------------------|--------------------------
---5----5-5-----5-5-5\3-|---3-----3-3-3--3-3-3/5-7-|--------------------------
------------------------|--------------------------|--------------------------
---------9---------9--9-9-9-9-7-|------7------7------7--5-|-------------------
--------------------------------|-------------------------|-------------------
----(7)-----7--7-7------------5-|---5-----5-5----5-5----3-|-------------------
--------------------------------|-------------------------|-------------------
-------5-------5--------------|-----------------------------------------------
------------------------------|-----------------------------------------------
---3-------3-3-----3--3-3/5-7-|-----------------------------------------------
------------------------------|-----------------------------------------------
--------------/12--11-9--7--|------7-----/12--11-9--5--|----------------------
----------------------------|--------------------------|----------------------
(7)------7----/10--9--7--5--|---5------5-/10--9--7--3--|----------------------
-----0-0----0---------------|--------------------------|----------------------
--------5----/12-11-/14--9--|-------------------------------------------------
----------------------------|-------------------------------------------------
----3-3----3-/10--9-/12--7--|-------------------------------------------------
----------------------------|-------------------------------------------------
play the last three bars 3 times as this is where the song fades
PjPjPjPjPjPjPjPjPjPjPjPjPjPjPjPjPjPjPjPjPjPjPjPjPjPjPjPjPjPjPjPjPjPjPjPjPjPjPj
Dirty Frank
Intro:
--19\20--19/20\19----------|--12-------------------14---------------------|---
---------------------------|--------14---12-------------12----------------|---
---------------------------|--------------------14------------14--12------|---
---------------------------|----------------------------------------------|---
Main Bassline:
--------------|------------------------------|--------------------------------
-------5------|------------------------------|--------------------------------
--7------7----|---7---5-----5--7--5----------|--------------------------------
--------------|-----------7------------------|--------------------------------
                    /\ this part gets varied by Ament.
                        start it off on any E and play it the same
                         as it is there.

PjPjPjPjPjPjPjPjPjPjPjPjPjPjPjPjPjPjPjPjPjPjPjPjPjPjPjPjPjPjPjPjPjPjPjPjPjPjPj
Dissident
Intro/Chorus:
------------------------------------------------------------------------------
------------------------------------------------------------------------------
------------------------------------------------------------------------------
---3--2--1-----1--0--3--------------------------------------------------------
   ...the dissident...     
Variation of chorus:
------------------------------------------------------------------------------
-----------------3-----3--2--5------------------------------------------------
------------3h5---------------------------------------------------------------
---3--2--1--------------------------------------------------------------------
Verse:
------------------------------------------------------------------------------
------------------------------------------------------------------------------
---3-----3--3-----1-----3--3-----3/5-----1-----3------------------------------
------------------------------------------------------------------------------
  She nursed him there...  
Interlude:
------------------------------------------------------------------------------
------------------------------------------------------------------------------
------1--3--------1--3--3/5\1-------------------------------------------------
---3-----------3--------------------------------------------------------------

PjPjPjPjPjPjPjPjPjPjPjPjPjPjPjPjPjPjPjPjPjPjPjPjPjPjPjPjPjPjPjPjPjPjPjPjPjPjPj
Go 
Dropped D
Intro:
------------------------------------------------------------------------------
------------------------------------------------------------------------------
------------------------------------------------------------------------------
-0-0-2-3--6-3-2-----0-0-2-3--6-3----------------------------------------------
Chorus:
------------------------------------------------------------------------------
------------------------------------------------------------------------------
--4h5-5-5-5-4---4h5-5-5-5-4-2-0-----------------------------------------------
------------------------------------------------------------------------------
"Dont go on me" part:
------------------------------------------------------------------------------
------------------------------------------------------------------------------
------------------------1-1-1-1-----------------------------------------------
-0-0-2-3---6-3-2--------------------------------------------------------------

PjPjPjPjPjPjPjPjPjPjPjPjPjPjPjPjPjPjPjPjPjPjPjPjPjPjPjPjPjPjPjPjPjPjPjPjPjPjPj
Jeremy
Intro:
                     NH NH                  NH   NH
------------------------12----------------------------------------------------
-----------7---5-----12-------------7---5----12-------------------------------
--0--5/7-0---0--------------0-5/7-0---0----------12---------------------------
------------------------------------------------------------------------------
                    NH  NH  
------------------------------------------------------------------------------
----------7---5---------12--------------7---5-5-5-5-5-5-----------------------
--0-5/7-0---0-------12----------0-5/7-0---0-----------------------------------
------------------------------------------------------------------------------
Verse:
------------------------------------------------------------------------------
----------7-------5-----------------------------------------------------------
--0-5/7-0---0-5/7----  Ament alters this riff in practically every measure  --
---------------------  but this is the hands-down riff for the verse  --------
Chorus:
------------------------------------------------------------------------------
---------------------------------7-7-7-7--------------------------------------
-8-8-8-8-8-8-8-8---5-5-5-7-7-7-7-0-0-0-0-----0-5/7-0--    repeat   -----------
------------------------------------------------------------------------------
  Jeremy spoke in        class   today
Outro:
------------------------------------------------------------------------------
------------------------------------------------------------------------------
------------------------------------------------------------------------------
-1-1-1-1-1-1-1-1-3-3-3-3-3-3-3-3-5-5-5-5-5-5-5-5-5-5-5-5-5-5-5-5--------------
------12------11--------7------9--------4-----5-------4-----5-----------------
---14------12----12---9-----10---10---5-----7-------5-----7---7---------------
-0-------0----------0-----0---------0-----0-----0-0-----0---------------------
------------------------------------------------------------------------------
                                                        NHNH
------12------11--------7------9--------4-----0-----4-----5---7---------------
---14------12----12---9-----10---10---5-----7-----5-----5-----0---------------
-0-------0----------0-----0---------0-----0-----0-----0-------5---------------
------------------------------------------------------------------------------

PjPjPjPjPjPjPjPjPjPjPjPjPjPjPjPjPjPjPjPjPjPjPjPjPjPjPjPjPjPjPjPjPjPjPjPjPjPjPj
Not For You
Verse:
------------------------------------------------------------------------------
------------------------------------------------------------------------------
--7-7-7-7-7-4-5---------------------------------------------------------------
------------------------------------------------------------------------------
Examples of some variations you can try:
----||-------------------------------||---------------------------------------
----||-------------------------------||---------------------------------------
--7-||-7-7-7-7-4-5---5-5-5-5-5-5-5/7-||---------------------------------------
----||-------------------------------||---------------------------------------
------------------------------------------------------------------------------
------------------------------------------------------------------------------
--7-7-7-7-7-4-5---------5-5-4-------------------------------------------------
------------------------------------------------------------------------------
For the last line of verse, there's a twist that blends into the chorus:
------------------------------------------------------------------------------
------------------------------------------------------------------------------
--7-7-7-7-7-4-5---5-5-5-5-5-5-4-2-2-2-2-2-4-----------------------------------
--------------------------------------------3--3-3--3-3-2-(0)-----------------
Chorus:
------------------------------------------------------------------------------
------------------------------------------------------------------------------
--(4)/7--7--7-7--(7)/2--2-2--2-2----------------------------------------------
----------------------------------3-2-(0)-------------------------------------
The "My friends they don't..." part, just do this:
------------------------------------------------------------------------------
------------------------------------------------------------------------------
------------------------------------------------------------------------------
--0-0-0-0-0-0-0-0-0-0-0-0-0-0-0-0-5-5-5-5-5-5-5-5-5-5-5-5-5-5-5-5-------------
For the "All that's sacred..." part, try this:
-------------------------------||---------------------------------------------
------------------2------------||---------------------------------------------
-2-4-2---------------2---------||-4-5-----------------------------------------
-------4-2-0-----------4-2-0---||---------------------------------------------
     (Do this 2 times)
For the subtle fadeout, the beginning, at least, goes like this:
------------------------------------------------------------------------------
------------------------------------------------------------------------------
-7-----9h10-12----15-14-12-10---9h10p9/7-5------------------------------------
------------------------------------------------------------------------------
Then it gets hairy...This is close:
------------------------------------------------------------------------------
------------------------------------------------------------------------------
--10--9--7---9-5--7-3--5-2--3-0-----3-----2h3--5-3----------------------------
---------------------------------------------------5---h3--0------------------

PjPjPjPjPjPjPjPjPjPjPjPjPjPjPjPjPjPjPjPjPjPjPjPjPjPjPjPjPjPjPjPjPjPjPjPjPjPjPj
Porch 
Intro:
  do each note 5 x's       
----------------------------|-------------------------------------------------
----------------------------|-------------------------------------------------
----------------------------|-------------------------------------------------
---3--5--6--5--3--5--6------|------8------------------------------------------
Verse:
------------------------------------------------------------------------------
--7-7-7-7---------------------------------------------------------------------
-----------10-10-10-10--9--7--------------------------------------------------
-------------------------------------8----------------------------------------

PjPjPjPjPjPjPjPjPjPjPjPjPjPjPjPjPjPjPjPjPjPjPjPjPjPjPjPjPjPjPjPjPjPjPjPjPjPjPj
Rats
Main Riff:
------------------------------------------------------------------------------
---------------555------------------------------------------------------------
-----7-------------7-po-5-----------------------------------------------------
-------0--5h7-------------66-7------------------------------------------------
                        
Chorus:
------------------------------------------------------------------------------
------------------------------------------------------------------------------
0-0-0--00--2-2-2--3-3-3-3-3-3-3---3-2-1-0-------------------------------------
------------------------------------------------------------------------------
Solo:
------------------------------------------------------------------------------
------------------------------------------------------------------------------
-----------------7------------------------------------------------------------
-------------------------0----------------------------------------------------
                        
Outro:
------------------------------------------------------------------------------
------------------------------------------------------------------------------
1-1-1-1-1-1-1-1-/-3-3-3-3-3-3-3-3---------------------------------------------
----------------------------------33-00-33-00-33--3--33-----------------------
        

PjPjPjPjPjPjPjPjPjPjPjPjPjPjPjPjPjPjPjPjPjPjPjPjPjPjPjPjPjPjPjPjPjPjPjPjPjPjPj
Rearviewmirror
Riff 1:
------------------------------------------------------------------------------
------------------------------------------------------------------------------
---0-5---5/7------------------------------------------------------------------
-5-----5-----0-0--------------------------------------------------------------
Riff 2:
------------------------------------------------------------------------------
------------------------------------------------------------------------------
---0-7---7/9------------------------------------------------------------------
-7-----7-----0-0--------------------------------------------------------------
Chorus:
------------------------------------------------------------------------------
------------------------------------------------------------------------------
------------------------------------------------------------------------------
-7*-/9--3*-/5--2*-0-2--5*-----------------------------------------------------
------------------------------------------------------------------------------
------------------------------------------------------------------------------
------------------------------------------------------------------------------
-7*-/9--3*-/5--2*-0-2--5*-----------------------------------------------------
------------------------------------------------------------------------------
------------------------------------------------------------------------------
------------------------------------------------------------------------------
-5*---------------------------------------------------------------------------

PjPjPjPjPjPjPjPjPjPjPjPjPjPjPjPjPjPjPjPjPjPjPjPjPjPjPjPjPjPjPjPjPjPjPjPjPjPjPj
Spin The Black Circle
Intro:         6x's
-------------3----------------------------------------------------------------
-3-2-1-0----------------------------------------------------------------------
------------------------------------------------------------------------------
------------------------------------------------------------------------------
Verse:                                       repeat quickly and many x's
------------------------------------------------------------------------------
------------------------------------------------------------------------------
---2-2-2-2----2-2-2-2-----2-2-2-2----0-0-0------------------------------------
------------------------------------------------------------------------------
------------------------------------------------------------------------------
------------------------------------------------------------------------------
--5-5-5-5----5-5-5-5----5-5-5-5---3-3-3---------------------------------------
------------------------------------------------------------------------------
later on during  "youre some one" part
        8x's
-----------|---------------|-----------|---------|---------------|------------
-----------|---------------|-----------|---------|---------------|------------
---3-3-3-3-|-2-2-2-2-------|--5-5-5-5--|-7-7-7-7-|-5-5-5-5-------|------------
-----------|---------------|-----------|---------|---------------|------------

PjPjPjPjPjPjPjPjPjPjPjPjPjPjPjPjPjPjPjPjPjPjPjPjPjPjPjPjPjPjPjPjPjPjPjPjPjPjPj
State of Love and Trust
Fig 1:
---------------------|--------------------------------------------------------
---------------------|--------------------------------------------------------
---------------------|--------------------------------------------------------
-1-1-1-1-(/)-5-5-5-5-|--------------------------------------------------------
Fig 2:
---------------------|--------------------------------------------------------
---------------------|--------------------------------------------------------
---------------------|--------------------------------------------------------
-1/5-(2)(2)(3)-3/5~--|--------------------------------------------------------
Fig 3:
------------------------------------------------------------------|-----------
------------------------------------------------------------------|-----------
-8-8-8-8----------------------------------2-2-2-2-3-3-3-3-5-5-5-5-|-----------
---------5-5-5-55-8-8-8-8-3-3-3-3-5-5-5-5-------------------------|-----------
Fig 4:
------------------------------------------------------------------|-----------
------------------------------------------------------------------|-----------
-8-8-8-8----------3-3-3-3---------------------------------5-5-5-5-|-----------
---------5-5-5-55---------3-3-3-3-5-5-5-5-3-3-3-3-1-1-1-1---------|-----------
Fig 5:
------------------|-----------------------------------------------------------
------------------|-----------------------------------------------------------
-8-8-8-8----------|-----------------------------------------------------------
---------5-5-5-55-|-----------------------------------------------------------
PjPjPjPjPjPjPjPjPjPjPjPjPjPjPjPjPjPjPjPjPjPjPjPjPjPjPjPjPjPjPjPjPjPjPjPjPjPjPj
WMA
--------------------------------------5----5----5----5----------------------
-----7----7----7---7---(7)---7---(7)---------------------------5----5----0--
--0----0--------------------------------------------------------------------
----------------------------------------------------------------------------
PjPjPjPjPjPjPjPjPjPjPjPjPjPjPjPjPjPjPjPjPjPjPjPjPjPjPjPjPjPjPjPjPjPjPjPjPjPjPj
Why Go
---------------------5--
-0-0-0-5/7-0-0-0-5/7----
pjpjpjpjpjpjpjpjpjpjpjpjpjpjpjpjpjpjpjpjpjpjpjpjpjpjpjpjpjpjpjpjpjpjpjpjpjpjpj
Smile

Normal Tuning: EAGD

Intro

A-|----------0-0-----2-2-----0-0------------

E-|--0-0------------------------------------ x2

A-|-----------0-0--00--2-2--22--0-0--00-----

E-|--0-0--00-------------------------------- x2

 

Verse

A-|----------0-0--0--2-2--2-----------------

E-|--0-0--0------------------5-5--5---------

A-|----------0-0--0--2-2--2-----------------

E-|--0-0--0------------------5-5--5p3/(1)p0-

Repeat till chorus

Chorus

"I miss you already..."

A-|-----------3-3-3-3--2-2-2-2--3-3-3-3-----

E-|--3-3-3-3--------------------------------

A-|-----------3-3-3-3--2-2-2-2--0-0-0-0-----

E-|--3-3-3-3--------------------------------

Bridge

A-|---------------------3-3-3--2-2--2-2-----

E-|---0-0-0-0-0--0-0------------------------ x2

Outro-Same as the verse part

pjpjjpjppjpjppjpjpjpjpjppjpjpjpjpjppjpjppjpjppjpjppjpjpjppjpjppjpjppjjppjpjpj
Corduroy

Normal tuning: E, A, D, G

Intro

A-|-12--(10)--12-10-9-10-9-7-9--12-10-9--/12-9-10-9--

A-|--5-5-7--5-7--5-8-7--5-7-- (repeat as needed)

Verse

A-|--/888-7--------

E-|--------3--33-- (repeat till chorus)

Chorus

A-|--333-2--2-0---

E-|-------------3-

Bridge

A-|--77777777777777777-0--3--

Interlude

"everything has changed...."

A-|-2222222222222222-3333333333333333----

A-|-2-2-2-0--2-2-2-2-0--3-3-3-2--3-2-3-5-|x2

A-|-2222222222222222-3333333333333333----

Ending

A-|7777777777777777-0000000000000000------------------

E-|----------------------------------8888888888888888-

pjpjppjppjjppjppjppjpjppjppjppjpjppjppjpjpppjpjppjppjpjppjppjpjppjpjppjppjpjp
Alive

Intro

|----------------------|----------------------------|----------------|

|----------------------|*-----7-9(b1/2)-7-9-9-999-7*|----------------|

|----------------------|*-0/7-9----0/7-9---------7-*|7777-7----------|

|-5==========5========-|----------------------------|-------8======--|

Verse 1 Play 4x

|-------------------------------|-----------------|

|*------7-9(b1/2)-7-9-9-999-7--*|*---------------*|

|*-0/7-9----0/7-9----------7---*|*-7777-7--------*|

|-------------------------------|---------8=====--|

Chorus 1 Play 3x

|----------------------------------|---------------|

|*--------------------------------*|---------------|

|*----------------5555-55---------*|-----6666-7-9\-|

|-12\0-00-3333-33--------5555-55---|-7777----------|

Verse 2 Play 4x

|-------------------------------|----------------|

|*------7-9(b1/2)-7-9-9-999-7--*|*--------------*|

|*-0/7-9----0/7-9------------7-*|*-7777-7-------*|

|-------------------------------|--------8======-|

Chorus 2 Play 4x

|----------------------------------|

|*--------------------------------*|

|*----------------5555-55---------*|

|-12\0-00-3333-33--------5555-55---|

Bridge Play 4x

|----------------------|----------------|---------------|

|*--------------4-444-*|*--------------*|*-------------*|

|*----6666-7-9--------*|*-4-2-5--4-7-5-*|*-6-4-7-6-9-7-*|

|-7777--------3--------|----------------|---------------|

Chorus 3/Guitar Solo Play 8x

|--------------------------------|

|*------------------------------*|

|*---------------5555-55--------*|

|-12\0-00-3333-33-------5555-55--|

Outro (4:03) Play 14x

|--------------------------------------------|

|*------------------------------------------*|

|*---------------------------5555-55--------*|

|-12-12-12-12--12-12\3333-33--------5555-55--|

End Riff

|---------------------------------------------------------------|

|---11-12-13-14-15-16-17-18-19(b full)19(b full)-19-19-19\------|

|-12--------------------------------------------------------(0)-|

|---------------------------------------------------------------|

jppjppjpjpjppjpjpjppjpjppjppjppjppjpjpjppjpjpjppjpjppjjpjpjpjpjpjpjpjpjpjpjpjp
Hail Hail

Tune normal e a d g

Intro/choruse:

|---------------------------------------|

|---------------------------------------|

|-5-55-8-88-4-44-5-5----353---3-33-1-11-|

|-------------------33-5---33-----------| x2

verse

|------------------------------------------------------------|

|------------------------------------------------------------|

|-----------------1-1----------------1-1-----1-1-1-1-1-1-----|

|-3-3-3-3-3-3-3-3----3-3-3-3-3-3-3-3-----3-3-------------3-3-|

|--------------------|

|--------------------|

|-1-1-1-1-1-1-1-1-3-3|

|--------------------|

|------------------------------------------------------------|

|------------------------------------------------------------|

|-----------------1-1----------------1-1-----1-1-1-1-1-1-----|

|-3-3-3-3-3-3-3-3----3-3-3-3-3-3-3-3-----3-3-------------3-3-|

|--------------------|

|--------------------|

|-1-1-1-1-1-1-1-1-1-1|

|--------------------|

chorus

|---------------------------------------|

|---------------------------------------|

|-5-55-8-88-4-44-5-5----353---3-33-1-11-|

|-------------------33-5---33-----------| x2

second verse ( same as first)

second chorus

|---------------------------------------|

|---------------------------------------|

|-5-55-8-88-4-44-5-5----353---3-33-1-11-|

|-------------------33-5---33-----------| x2

|---------------------|

|---------------------|

|-5-55-7-77-1-11------|

|----------------3-33-| x3

 

 

Interlude:

|--------------|-------------|---------------------|

|-7-5-7---5----|-7-5-7---5---|-7-5-7---------------|

|-------7---7--|-------7---7-|-------7-5-----------|

|--------------|-------------|-----------5-3-3-3-3-|

|------------------------------------------------------------|

|------------------------------------------------------------|

|-----------------1-1----------------1-1-----1-1-1-1-1-1-----|

|-3-3-3-3-3-3-3-3----3-3-3-3-3-3-3-3-----3-3-------------3-3-|

|---------------------------------------|

|---------------------------------------|

|-5-55-8-88-4-44-5-5----353---3-33-1-11-|

|-------------------33-5---33-----------| x2

|---------------------|

|---------------------|

|-5-55-7-77-1-11------|

|----------------3-33-| x2

|--------------------------|

|--------------------------|

|-5-55-7-77-1-11-9-9-10-11-|

|--------------------------|

 

jpjpjpjpjpjpjpjpjpjpjpjpjpjpjpjpjpjpjpjppjpjppjpjppjpjppjpjppjpjppjpjppjpjppjpjpjpjpjpjpjppjpjpjpjpjppjpjpjppjppjppjpjppjpj

 
 
 
PjPjPjPjPjPjPjPjPjPjPjPjPjPjPjPjPjPjPjPjPjPjPjPjPjPjPjPjPjPjPjPjPjPjPjPjPjPjpjpjpjppjpjpjpjppjPj
PjPjPjPjPjPjPjPjPjPjPjPjPjPjPjPjPjPjPjPjPjPjPjPjPjPjPjPjPjPjPjPjPjPjPjPjPjPjPj
PjPjPjPjPjPjPjPjPjPjPjPjPjPjPjPjPjPjPjPjPjPjPjPjPjPjPjPjPjPjPjPjPjPjPjPjPjPjPj
PjPjPjPjPjPjPjPjPjPjPjPjPjPjPjPjPjPjPjPjPjPjPjPjPjPjPjPjPjPjPjPjPjPjPjPjPjPjPj
PjPjPjPjPjPjPjPjPjPjPjPjPjPjPjPjPjPjPjPjPjPjPjPjPjPjPjPjPjPjPjPjPjPjPjPjPjPjPj
PjPjPjPjPjPjPjPjPjPjPjPjPjPjPjPjPjPjPjPjPjPjPjPjPjPjPjPjPjPjPjPjPjPjPjPjPjPjPj
PjPjPjPjPjPjPjPjPjPjPjPjPjPjPjPjPjPjPjPjPjPjPjPjPjPjPjPjPjPjPjPjPjPjPjPjPjPjPj
PjPjPjPjPjPjPjPjPjPjPjPjPjPjPjPjPjPjPjPjPjPjPjPjPjPjPjPjPjPjPJPJPJPJPJPJPJPJPJ